ISO-10303-21;
HEADER;
/****************************************************************
 * Generated by software with PDE/Lib inside                    *
 * PDElib Version v51a, created Thu 12/14/2006                  *
 * International Technegroup Inc. (www.iti-oh.com)              *
 ****************************************************************/
FILE_DESCRIPTION((''),'2;1');
FILE_NAME('T:\\Arbeitspl\S\dtze\\Aushilfe\\KPeters\\3D\\Steps 08_10\\11301\\11301200x.stp','2010-08-03T11:36:34',('thilbrands'),(''),'Autodesk Inventor 2008','Autodesk Inventor 2008','');
FILE_SCHEMA(('AUTOMOTIVE_DESIGN { 1 0 10303 214 1 1 1 1 }'));
ENDSEC;
DATA;
#5=APPLICATION_CONTEXT('automotive design');
#6=APPLICATION_PROTOCOL_DEFINITION('International Standard','automotive_design',2001,#5);
#7=PRODUCT_CONTEXT('',#5,'mechanical');
#8=PRODUCT('113011001','113011001',$,(#7));
#9=PRODUCT_RELATED_PRODUCT_CATEGORY('part',$,(#8));
#10=PRODUCT_DEFINITION_FORMATION('',$,#8);
#11=PRODUCT_DEFINITION_CONTEXT('part definition',#5,'design');
#12=PRODUCT_DEFINITION('',$,#10,#11);
#18=(NAMED_UNIT(*)PLANE_ANGLE_UNIT()SI_UNIT($,.RADIAN.));
#19=DIMENSIONAL_EXPONENTS(0.0,0.0,0.0,0.0,0.0,0.0,0.0);
#20=PLANE_ANGLE_MEASURE_WITH_UNIT(PLANE_ANGLE_MEASURE(0.017453292500000),#18);
#24=(CONVERSION_BASED_UNIT('DEGREE',#20)NAMED_UNIT(#19)PLANE_ANGLE_UNIT());
#28=(NAMED_UNIT(*)SI_UNIT($,.STERADIAN.)SOLID_ANGLE_UNIT());
#32=(LENGTH_UNIT()NAMED_UNIT(*)SI_UNIT(.MILLI.,.METRE.));
#34=UNCERTAINTY_MEASURE_WITH_UNIT(LENGTH_MEASURE(0.010000000000000),#32,'DISTANCE_ACCURACY_VALUE','');
#36=(GEOMETRIC_REPRESENTATION_CONTEXT(3)GLOBAL_UNCERTAINTY_ASSIGNED_CONTEXT((#34))GLOBAL_UNIT_ASSIGNED_CONTEXT((#24,#28,#32))REPRESENTATION_CONTEXT('None','None'));
#37=AXIS2_PLACEMENT_3D('',#38,#39,#40);
#38=CARTESIAN_POINT('',(0.0,0.0,0.0));
#39=DIRECTION('',(0.0,0.0,1.0));
#40=DIRECTION('',(1.0,0.0,0.0));
#41=SHAPE_REPRESENTATION('',(#37),#36);
#42=PRODUCT_DEFINITION_SHAPE('','',#12);
#43=SHAPE_DEFINITION_REPRESENTATION(#42,#41);
#49=(NAMED_UNIT(*)PLANE_ANGLE_UNIT()SI_UNIT($,.RADIAN.));
#50=DIMENSIONAL_EXPONENTS(0.0,0.0,0.0,0.0,0.0,0.0,0.0);
#51=PLANE_ANGLE_MEASURE_WITH_UNIT(PLANE_ANGLE_MEASURE(0.017453292500000),#49);
#55=(CONVERSION_BASED_UNIT('DEGREE',#51)NAMED_UNIT(#50)PLANE_ANGLE_UNIT());
#59=(NAMED_UNIT(*)SI_UNIT($,.STERADIAN.)SOLID_ANGLE_UNIT());
#63=(LENGTH_UNIT()NAMED_UNIT(*)SI_UNIT(.MILLI.,.METRE.));
#65=UNCERTAINTY_MEASURE_WITH_UNIT(LENGTH_MEASURE(0.000001000000000),#63,'DISTANCE_ACCURACY_VALUE','');
#67=(GEOMETRIC_REPRESENTATION_CONTEXT(3)GLOBAL_UNCERTAINTY_ASSIGNED_CONTEXT((#65))GLOBAL_UNIT_ASSIGNED_CONTEXT((#55,#59,#63))REPRESENTATION_CONTEXT('','3D'));
#68=CARTESIAN_POINT('',(-1.249999999999999,-1.513451E-016,0.0));
#69=DIRECTION('',(-1.0,-1.210760E-016,0.0));
#70=DIRECTION('',(0.0,-1.0,0.0));
#71=AXIS2_PLACEMENT_3D('',#68,#69,#70);
#72=CONICAL_SURFACE('',#71,37.750000000000000,45.000000000000014);
#73=CARTESIAN_POINT('',(-2.500000000000004,39.0,4.775965E-015));
#74=VERTEX_POINT('',#73);
#75=CARTESIAN_POINT('',(-2.499999999999997,-3.026901E-016,0.0));
#76=DIRECTION('',(1.0,0.0,0.0));
#77=DIRECTION('',(0.0,-1.0,0.0));
#78=AXIS2_PLACEMENT_3D('',#75,#76,#77);
#79=CIRCLE('',#78,39.0);
#80=EDGE_CURVE('',#74,#74,#79,.T.);
#81=ORIENTED_EDGE('',*,*,#80,.T.);
#82=EDGE_LOOP('',(#81));
#83=FACE_OUTER_BOUND('',#82,.T.);
#84=CARTESIAN_POINT('',(-5.529499E-015,36.500000000000000,-4.469813E-015));
#85=VERTEX_POINT('',#84);
#86=CARTESIAN_POINT('',(-1.110223E-015,-2.403561E-030,0.0));
#87=DIRECTION('',(-1.0,0.0,0.0));
#88=DIRECTION('',(0.0,-1.0,0.0));
#89=AXIS2_PLACEMENT_3D('',#86,#87,#88);
#90=CIRCLE('',#89,36.500000000000000);
#91=EDGE_CURVE('',#85,#85,#90,.T.);
#92=ORIENTED_EDGE('',*,*,#91,.T.);
#93=EDGE_LOOP('',(#92));
#94=FACE_BOUND('',#93,.T.);
#95=ADVANCED_FACE('',(#83,#94),#72,.T.);
#96=CARTESIAN_POINT('',(-7.000000000000002,-8.475323E-016,0.0));
#97=DIRECTION('',(1.0,1.210760E-016,0.0));
#98=DIRECTION('',(0.0,1.0,0.0));
#99=AXIS2_PLACEMENT_3D('',#96,#97,#98);
#100=CYLINDRICAL_SURFACE('',#99,39.0);
#101=CARTESIAN_POINT('',(-14.000000000000007,39.0,0.0));
#102=VERTEX_POINT('',#101);
#103=CARTESIAN_POINT('',(-14.000000000000004,-1.695065E-015,0.0));
#104=DIRECTION('',(1.0,0.0,0.0));
#105=DIRECTION('',(0.0,1.0,0.0));
#106=AXIS2_PLACEMENT_3D('',#103,#104,#105);
#107=CIRCLE('',#106,39.0);
#108=EDGE_CURVE('',#102,#102,#107,.T.);
#109=ORIENTED_EDGE('',*,*,#108,.T.);
#110=EDGE_LOOP('',(#109));
#111=FACE_OUTER_BOUND('',#110,.T.);
#112=ORIENTED_EDGE('',*,*,#80,.F.);
#113=EDGE_LOOP('',(#112));
#114=FACE_BOUND('',#113,.T.);
#115=ADVANCED_FACE('',(#111,#114),#100,.T.);
#116=CARTESIAN_POINT('',(-5.551115E-015,36.387822173508930,0.0));
#117=DIRECTION('',(1.0,0.0,0.0));
#118=DIRECTION('',(0.0,0.0,-1.0));
#119=AXIS2_PLACEMENT_3D('',#116,#117,#118);
#120=PLANE('',#119);
#121=ORIENTED_EDGE('',*,*,#91,.F.);
#122=EDGE_LOOP('',(#121));
#123=FACE_OUTER_BOUND('',#122,.T.);
#124=CARTESIAN_POINT('',(-4.440892E-015,33.775644347017860,0.0));
#125=VERTEX_POINT('',#124);
#126=CARTESIAN_POINT('',(0.0,-2.465190E-030,0.0));
#127=DIRECTION('',(1.0,0.0,0.0));
#128=DIRECTION('',(0.0,1.0,0.0));
#129=AXIS2_PLACEMENT_3D('',#126,#127,#128);
#130=CIRCLE('',#129,33.775644347017860);
#131=EDGE_CURVE('',#125,#125,#130,.T.);
#132=ORIENTED_EDGE('',*,*,#131,.F.);
#133=EDGE_LOOP('',(#132));
#134=FACE_BOUND('',#133,.T.);
#135=ADVANCED_FACE('',(#123,#134),#120,.T.);
#136=CARTESIAN_POINT('',(-27.796772546760756,-3.365523E-015,0.0));
#137=DIRECTION('',(1.0,1.210760E-016,0.0));
#138=DIRECTION('',(0.0,1.0,0.0));
#139=AXIS2_PLACEMENT_3D('',#136,#137,#138);
#140=CYLINDRICAL_SURFACE('',#139,25.400000000000006);
#141=CARTESIAN_POINT('',(-20.593545093521520,25.400000000000006,0.0));
#142=VERTEX_POINT('',#141);
#143=CARTESIAN_POINT('',(-20.593545093521513,-2.493385E-015,0.0));
#144=DIRECTION('',(1.0,0.0,0.0));
#145=DIRECTION('',(0.0,1.0,0.0));
#146=AXIS2_PLACEMENT_3D('',#143,#144,#145);
#147=CIRCLE('',#146,25.400000000000009);
#148=EDGE_CURVE('',#142,#142,#147,.T.);
#149=ORIENTED_EDGE('',*,*,#148,.F.);
#150=EDGE_LOOP('',(#149));
#151=FACE_OUTER_BOUND('',#150,.T.);
#152=CARTESIAN_POINT('',(-35.0,25.399999999999991,0.0));
#153=VERTEX_POINT('',#152);
#154=CARTESIAN_POINT('',(-34.999999999999993,-4.237662E-015,0.0));
#155=DIRECTION('',(1.0,0.0,0.0));
#156=DIRECTION('',(0.0,1.0,0.0));
#157=AXIS2_PLACEMENT_3D('',#154,#155,#156);
#158=CIRCLE('',#157,25.399999999999995);
#159=EDGE_CURVE('',#153,#153,#158,.T.);
#160=ORIENTED_EDGE('',*,*,#159,.T.);
#161=EDGE_LOOP('',(#160));
#162=FACE_BOUND('',#161,.T.);
#163=ADVANCED_FACE('',(#151,#162),#140,.T.);
#164=CARTESIAN_POINT('',(-20.593545093521520,-8.775999E-015,35.399999999999999));
#165=CARTESIAN_POINT('',(-15.593545093521529,-8.170618E-015,35.399999999999999));
#166=CARTESIAN_POINT('',(-15.593545093521527,-7.558315E-015,30.400000000000006));
#167=CARTESIAN_POINT('',(-15.593545093521527,-6.946012E-015,25.400000000000013));
#168=CARTESIAN_POINT('',(-20.593545093521520,-7.551392E-015,25.400000000000013));
#169=CARTESIAN_POINT('',(-20.593545093521517,-35.400000000000006,35.399999999999984));
#170=CARTESIAN_POINT('',(-15.593545093521524,-35.400000000000006,35.399999999999984));
#171=CARTESIAN_POINT('',(-15.593545093521525,-30.400000000000002,30.399999999999991));
#172=CARTESIAN_POINT('',(-15.593545093521524,-25.400000000000013,25.400000000000002));
#173=CARTESIAN_POINT('',(-20.593545093521517,-25.400000000000013,25.400000000000002));
#174=CARTESIAN_POINT('',(-20.593545093521517,-35.400000000000006,-4.335106E-015));
#175=CARTESIAN_POINT('',(-15.593545093521524,-35.400000000000006,-4.335106E-015));
#176=CARTESIAN_POINT('',(-15.593545093521524,-30.400000000000009,-3.722803E-015));
#177=CARTESIAN_POINT('',(-15.593545093521525,-25.400000000000016,-3.110500E-015));
#178=CARTESIAN_POINT('',(-20.593545093521517,-25.400000000000016,-3.110500E-015));
#179=CARTESIAN_POINT('',(-20.593545093521517,-35.399999999999991,-35.399999999999999));
#180=CARTESIAN_POINT('',(-15.593545093521524,-35.399999999999991,-35.399999999999999));
#181=CARTESIAN_POINT('',(-15.593545093521525,-30.399999999999999,-30.400000000000002));
#182=CARTESIAN_POINT('',(-15.593545093521524,-25.400000000000006,-25.400000000000009));
#183=CARTESIAN_POINT('',(-20.593545093521517,-25.400000000000002,-25.400000000000009));
#184=CARTESIAN_POINT('',(-20.593545093521520,-1.057856E-016,-35.399999999999999));
#185=CARTESIAN_POINT('',(-15.593545093521529,4.995946E-016,-35.399999999999999));
#186=CARTESIAN_POINT('',(-15.593545093521527,-1.127085E-016,-30.400000000000006));
#187=CARTESIAN_POINT('',(-15.593545093521527,-7.250117E-016,-25.400000000000013));
#188=CARTESIAN_POINT('',(-20.593545093521520,-1.330392E-015,-25.400000000000013));
#189=CARTESIAN_POINT('',(-20.593545093521524,35.399999999999991,-35.399999999999984));
#190=CARTESIAN_POINT('',(-15.593545093521531,35.399999999999991,-35.399999999999984));
#191=CARTESIAN_POINT('',(-15.593545093521529,30.399999999999999,-30.399999999999991));
#192=CARTESIAN_POINT('',(-15.593545093521531,25.400000000000006,-25.400000000000002));
#193=CARTESIAN_POINT('',(-20.593545093521524,25.400000000000002,-25.400000000000002));
#194=CARTESIAN_POINT('',(-20.593545093521524,35.399999999999991,4.335106E-015));
#195=CARTESIAN_POINT('',(-15.593545093521531,35.399999999999991,4.335106E-015));
#196=CARTESIAN_POINT('',(-15.593545093521531,30.400000000000002,3.722803E-015));
#197=CARTESIAN_POINT('',(-15.593545093521529,25.400000000000013,3.110500E-015));
#198=CARTESIAN_POINT('',(-20.593545093521524,25.400000000000009,3.110500E-015));
#199=CARTESIAN_POINT('',(-20.593545093521524,35.399999999999977,35.399999999999999));
#200=CARTESIAN_POINT('',(-15.593545093521531,35.399999999999977,35.399999999999999));
#201=CARTESIAN_POINT('',(-15.593545093521529,30.399999999999991,30.400000000000002));
#202=CARTESIAN_POINT('',(-15.593545093521531,25.399999999999999,25.400000000000009));
#203=CARTESIAN_POINT('',(-20.593545093521524,25.399999999999999,25.400000000000009));
#204=CARTESIAN_POINT('',(-20.593545093521520,-8.775999E-015,35.399999999999999));
#205=CARTESIAN_POINT('',(-15.593545093521529,-8.170618E-015,35.399999999999999));
#206=CARTESIAN_POINT('',(-15.593545093521527,-7.558315E-015,30.400000000000006));
#207=CARTESIAN_POINT('',(-15.593545093521527,-6.946012E-015,25.400000000000013));
#208=CARTESIAN_POINT('',(-20.593545093521520,-7.551392E-015,25.400000000000013));
#216=(BOUNDED_SURFACE()B_SPLINE_SURFACE(2,2,((#164,#169,#174,#179,#184,#189,#194,#199,#204),(#165,#170,#175,#180,#185,#190,#195,#200,#205),(#166,#171,#176,#181,#186,#191,#196,#201,#206),(#167,#172,#177,#182,#187,#192,#197,#202,#207),(#168,#173,#178,#183,#188,#193,#198,#203,#208)),.UNSPECIFIED.,.F.,.T.,.U.)B_SPLINE_SURFACE_WITH_KNOTS((3,2,3),(3,2,2,2,3),(-4.575006E-018,1.570796326794897,3.141592653589793),(0.0,1.570796326794897,3.141592653589793,4.712388980384690,6.283185307179586),.UNSPECIFIED.)GEOMETRIC_REPRESENTATION_ITEM()RATIONAL_B_SPLINE_SURFACE(((1.0,0.707106781186548,1.0,0.707106781186548,1.0,0.707106781186548,1.0,0.707106781186548,1.0),(0.707106781186545,0.499999999999999,0.707106781186545,0.499999999999999,0.707106781186545,0.499999999999999,0.707106781186545,0.499999999999999,0.707106781186545),(1.0,0.707106781186548,1.0,0.707106781186548,1.0,0.707106781186548,1.0,0.707106781186548,1.0),(0.707106781186547,0.500000000000000,0.707106781186547,0.500000000000000,0.707106781186547,0.500000000000000,0.707106781186547,0.500000000000000,0.707106781186547),(1.0,0.707106781186548,1.0,0.707106781186548,1.0,0.707106781186548,1.0,0.707106781186548,1.0)))REPRESENTATION_ITEM('')SURFACE());
#217=CARTESIAN_POINT('',(-15.669506328460480,29.531759111665352,0.0));
#218=VERTEX_POINT('',#217);
#219=CARTESIAN_POINT('',(-15.669506328460477,-1.897202E-015,0.0));
#220=DIRECTION('',(1.0,0.0,0.0));
#221=DIRECTION('',(0.0,1.0,0.0));
#222=AXIS2_PLACEMENT_3D('',#219,#220,#221);
#223=CIRCLE('',#222,29.531759111665352);
#224=EDGE_CURVE('',#218,#218,#223,.T.);
#225=ORIENTED_EDGE('',*,*,#224,.F.);
#226=EDGE_LOOP('',(#225));
#227=FACE_OUTER_BOUND('',#226,.T.);
#228=ORIENTED_EDGE('',*,*,#148,.T.);
#229=EDGE_LOOP('',(#228));
#230=FACE_BOUND('',#229,.T.);
#231=ADVANCED_FACE('',(#227,#230),#216,.T.);
#232=CARTESIAN_POINT('',(-14.834753164230241,-1.796133E-015,0.0));
#233=DIRECTION('',(1.0,1.210760E-016,0.0));
#234=DIRECTION('',(0.0,1.0,0.0));
#235=AXIS2_PLACEMENT_3D('',#232,#233,#234);
#236=CONICAL_SURFACE('',#235,34.265879555832676,80.000000000000057);
#237=ORIENTED_EDGE('',*,*,#108,.F.);
#238=EDGE_LOOP('',(#237));
#239=FACE_OUTER_BOUND('',#238,.T.);
#240=ORIENTED_EDGE('',*,*,#224,.T.);
#241=EDGE_LOOP('',(#240));
#242=FACE_BOUND('',#241,.T.);
#243=ADVANCED_FACE('',(#239,#242),#236,.T.);
#244=CARTESIAN_POINT('',(-3.500000000000001,-4.237662E-016,0.0));
#245=DIRECTION('',(1.0,1.210760E-016,0.0));
#246=DIRECTION('',(0.0,1.0,0.0));
#247=AXIS2_PLACEMENT_3D('',#244,#245,#246);
#248=CONICAL_SURFACE('',#247,32.837822173508933,15.000000000000011);
#249=CARTESIAN_POINT('',(-7.000000000000007,31.899999999999999,0.0));
#250=VERTEX_POINT('',#249);
#251=CARTESIAN_POINT('',(-7.000000000000002,-8.475323E-016,0.0));
#252=DIRECTION('',(1.0,0.0,0.0));
#253=DIRECTION('',(0.0,1.0,0.0));
#254=AXIS2_PLACEMENT_3D('',#251,#252,#253);
#255=CIRCLE('',#254,31.899999999999999);
#256=EDGE_CURVE('',#250,#250,#255,.T.);
#257=ORIENTED_EDGE('',*,*,#256,.F.);
#258=EDGE_LOOP('',(#257));
#259=FACE_OUTER_BOUND('',#258,.T.);
#260=ORIENTED_EDGE('',*,*,#131,.T.);
#261=EDGE_LOOP('',(#260));
#262=FACE_BOUND('',#261,.T.);
#263=ADVANCED_FACE('',(#259,#262),#248,.F.);
#264=CARTESIAN_POINT('',(-8.750000000000004,-1.059415E-015,0.0));
#265=DIRECTION('',(1.0,1.210760E-016,0.0));
#266=DIRECTION('',(0.0,1.0,0.0));
#267=AXIS2_PLACEMENT_3D('',#264,#265,#266);
#268=CYLINDRICAL_SURFACE('',#267,31.899999999999999);
#269=CARTESIAN_POINT('',(-10.500000000000009,31.899999999999999,0.0));
#270=VERTEX_POINT('',#269);
#271=CARTESIAN_POINT('',(-10.500000000000007,-1.271299E-015,0.0));
#272=DIRECTION('',(1.0,0.0,0.0));
#273=DIRECTION('',(0.0,1.0,0.0));
#274=AXIS2_PLACEMENT_3D('',#271,#272,#273);
#275=CIRCLE('',#274,31.899999999999999);
#276=EDGE_CURVE('',#270,#270,#275,.T.);
#277=ORIENTED_EDGE('',*,*,#276,.F.);
#278=EDGE_LOOP('',(#277));
#279=FACE_OUTER_BOUND('',#278,.T.);
#280=ORIENTED_EDGE('',*,*,#256,.T.);
#281=EDGE_LOOP('',(#280));
#282=FACE_BOUND('',#281,.T.);
#283=ADVANCED_FACE('',(#279,#282),#268,.F.);
#284=CARTESIAN_POINT('',(-10.500000000000007,29.450000000000003,0.0));
#285=DIRECTION('',(1.0,0.0,0.0));
#286=DIRECTION('',(0.0,0.0,-1.0));
#287=AXIS2_PLACEMENT_3D('',#284,#285,#286);
#288=PLANE('',#287);
#289=ORIENTED_EDGE('',*,*,#276,.T.);
#290=EDGE_LOOP('',(#289));
#291=FACE_OUTER_BOUND('',#290,.T.);
#292=CARTESIAN_POINT('',(-10.500000000000007,27.0,0.0));
#293=VERTEX_POINT('',#292);
#294=CARTESIAN_POINT('',(-10.500000000000004,-1.271299E-015,0.0));
#295=DIRECTION('',(1.0,0.0,0.0));
#296=DIRECTION('',(0.0,1.0,0.0));
#297=AXIS2_PLACEMENT_3D('',#294,#295,#296);
#298=CIRCLE('',#297,27.0);
#299=EDGE_CURVE('',#293,#293,#298,.T.);
#300=ORIENTED_EDGE('',*,*,#299,.F.);
#301=EDGE_LOOP('',(#300));
#302=FACE_BOUND('',#301,.T.);
#303=ADVANCED_FACE('',(#291,#302),#288,.T.);
#304=CARTESIAN_POINT('',(-8.750000000000004,-1.059415E-015,0.0));
#305=DIRECTION('',(1.0,1.210760E-016,0.0));
#306=DIRECTION('',(0.0,1.0,0.0));
#307=AXIS2_PLACEMENT_3D('',#304,#305,#306);
#308=CYLINDRICAL_SURFACE('',#307,27.0);
#309=CARTESIAN_POINT('',(-7.000000000000010,27.0,0.0));
#310=VERTEX_POINT('',#309);
#311=CARTESIAN_POINT('',(-7.000000000000006,-8.475323E-016,0.0));
#312=DIRECTION('',(1.0,0.0,0.0));
#313=DIRECTION('',(0.0,1.0,0.0));
#314=AXIS2_PLACEMENT_3D('',#311,#312,#313);
#315=CIRCLE('',#314,27.0);
#316=EDGE_CURVE('',#310,#310,#315,.T.);
#317=ORIENTED_EDGE('',*,*,#316,.F.);
#318=EDGE_LOOP('',(#317));
#319=FACE_OUTER_BOUND('',#318,.T.);
#320=ORIENTED_EDGE('',*,*,#299,.T.);
#321=EDGE_LOOP('',(#320));
#322=FACE_BOUND('',#321,.T.);
#323=ADVANCED_FACE('',(#319,#322),#308,.T.);
#324=CARTESIAN_POINT('',(-7.000000000000009,25.450000000000003,0.0));
#325=DIRECTION('',(1.0,0.0,0.0));
#326=DIRECTION('',(0.0,0.0,-1.0));
#327=AXIS2_PLACEMENT_3D('',#324,#325,#326);
#328=PLANE('',#327);
#329=ORIENTED_EDGE('',*,*,#316,.T.);
#330=EDGE_LOOP('',(#329));
#331=FACE_OUTER_BOUND('',#330,.T.);
#332=CARTESIAN_POINT('',(-7.000000000000006,23.900000000000006,0.0));
#333=VERTEX_POINT('',#332);
#334=CARTESIAN_POINT('',(-7.000000000000002,-8.475323E-016,0.0));
#335=DIRECTION('',(1.0,0.0,0.0));
#336=DIRECTION('',(0.0,1.0,0.0));
#337=AXIS2_PLACEMENT_3D('',#334,#335,#336);
#338=CIRCLE('',#337,23.900000000000006);
#339=EDGE_CURVE('',#333,#333,#338,.T.);
#340=ORIENTED_EDGE('',*,*,#339,.F.);
#341=EDGE_LOOP('',(#340));
#342=FACE_BOUND('',#341,.T.);
#343=ADVANCED_FACE('',(#331,#342),#328,.T.);
#344=CARTESIAN_POINT('',(-21.000000000000007,-2.542597E-015,0.0));
#345=DIRECTION('',(1.0,1.210760E-016,0.0));
#346=DIRECTION('',(0.0,1.0,0.0));
#347=AXIS2_PLACEMENT_3D('',#344,#345,#346);
#348=CYLINDRICAL_SURFACE('',#347,23.900000000000006);
#349=CARTESIAN_POINT('',(-35.0,23.899999999999999,0.0));
#350=VERTEX_POINT('',#349);
#351=CARTESIAN_POINT('',(-34.999999999999993,-4.237662E-015,0.0));
#352=DIRECTION('',(1.0,0.0,0.0));
#353=DIRECTION('',(0.0,1.0,0.0));
#354=AXIS2_PLACEMENT_3D('',#351,#352,#353);
#355=CIRCLE('',#354,23.900000000000002);
#356=EDGE_CURVE('',#350,#350,#355,.T.);
#357=ORIENTED_EDGE('',*,*,#356,.F.);
#358=EDGE_LOOP('',(#357));
#359=FACE_OUTER_BOUND('',#358,.T.);
#360=ORIENTED_EDGE('',*,*,#339,.T.);
#361=EDGE_LOOP('',(#360));
#362=FACE_BOUND('',#361,.T.);
#363=ADVANCED_FACE('',(#359,#362),#348,.F.);
#364=CARTESIAN_POINT('',(-35.0,24.649999999999995,0.0));
#365=DIRECTION('',(-1.0,0.0,0.0));
#366=DIRECTION('',(0.0,0.0,1.0));
#367=AXIS2_PLACEMENT_3D('',#364,#365,#366);
#368=PLANE('',#367);
#369=ORIENTED_EDGE('',*,*,#159,.F.);
#370=EDGE_LOOP('',(#369));
#371=FACE_OUTER_BOUND('',#370,.T.);
#372=ORIENTED_EDGE('',*,*,#356,.T.);
#373=EDGE_LOOP('',(#372));
#374=FACE_BOUND('',#373,.T.);
#375=ADVANCED_FACE('',(#371,#374),#368,.T.);
#376=CLOSED_SHELL('',(#95,#115,#135,#163,#231,#243,#263,#283,#303,#323,#343,#363,#375));
#377=MANIFOLD_SOLID_BREP('',#376);
#378=COLOUR_RGB('Metall - Stahl',0.639216005802155,0.639216005802155,0.686275005340576);
#379=FILL_AREA_STYLE_COLOUR('Metall - Stahl',#378);
#380=FILL_AREA_STYLE('Metall - Stahl',(#379));
#381=SURFACE_STYLE_FILL_AREA(#380);
#382=SURFACE_SIDE_STYLE('Metall - Stahl',(#381));
#383=SURFACE_STYLE_USAGE(.BOTH.,#382);
#384=PRESENTATION_STYLE_ASSIGNMENT((#383));
#385=STYLED_ITEM('',(#384),#377);
#386=MECHANICAL_DESIGN_GEOMETRIC_PRESENTATION_REPRESENTATION('',(#385),#36);
#387=ADVANCED_BREP_SHAPE_REPRESENTATION('ABSR',(#377),#36);
#388=SHAPE_REPRESENTATION_RELATIONSHIP('SRR','None',#387,#41);
ENDSEC;
END-ISO-10303-21;
