ISO-10303-21;
HEADER;
/****************************************************************
 * Generated by software with PDE/Lib inside                    *
 * PDElib Version v51a, created Thu 12/14/2006                  *
 * International Technegroup Inc. (www.iti-oh.com)              *
 ****************************************************************/
FILE_DESCRIPTION((''),'2;1');
FILE_NAME('T:\\Arbeitspl\S\dtze\\Aushilfe\\KPeters\\3D\\Steps 08_10\\35500\\35500025X.stp','2010-08-13T10:41:55',('thilbrands'),(''),'Autodesk Inventor 2008','Autodesk Inventor 2008','');
FILE_SCHEMA(('AUTOMOTIVE_DESIGN { 1 0 10303 214 1 1 1 1 }'));
ENDSEC;
DATA;
#5=APPLICATION_CONTEXT('automotive design');
#6=APPLICATION_PROTOCOL_DEFINITION('International Standard','automotive_design',2001,#5);
#7=PRODUCT_CONTEXT('',#5,'mechanical');
#8=PRODUCT('355000101','355000101',$,(#7));
#9=PRODUCT_RELATED_PRODUCT_CATEGORY('part',$,(#8));
#10=PRODUCT_DEFINITION_FORMATION('',$,#8);
#11=PRODUCT_DEFINITION_CONTEXT('part definition',#5,'design');
#12=PRODUCT_DEFINITION('',$,#10,#11);
#18=(NAMED_UNIT(*)PLANE_ANGLE_UNIT()SI_UNIT($,.RADIAN.));
#19=DIMENSIONAL_EXPONENTS(0.0,0.0,0.0,0.0,0.0,0.0,0.0);
#20=PLANE_ANGLE_MEASURE_WITH_UNIT(PLANE_ANGLE_MEASURE(0.017453292500000),#18);
#24=(CONVERSION_BASED_UNIT('DEGREE',#20)NAMED_UNIT(#19)PLANE_ANGLE_UNIT());
#28=(NAMED_UNIT(*)SI_UNIT($,.STERADIAN.)SOLID_ANGLE_UNIT());
#32=(LENGTH_UNIT()NAMED_UNIT(*)SI_UNIT(.MILLI.,.METRE.));
#34=UNCERTAINTY_MEASURE_WITH_UNIT(LENGTH_MEASURE(0.010000000000000),#32,'DISTANCE_ACCURACY_VALUE','');
#36=(GEOMETRIC_REPRESENTATION_CONTEXT(3)GLOBAL_UNCERTAINTY_ASSIGNED_CONTEXT((#34))GLOBAL_UNIT_ASSIGNED_CONTEXT((#24,#28,#32))REPRESENTATION_CONTEXT('None','None'));
#37=AXIS2_PLACEMENT_3D('',#38,#39,#40);
#38=CARTESIAN_POINT('',(0.0,0.0,0.0));
#39=DIRECTION('',(0.0,0.0,1.0));
#40=DIRECTION('',(1.0,0.0,0.0));
#41=SHAPE_REPRESENTATION('',(#37,#200,#588,#600),#36);
#42=PRODUCT_DEFINITION_SHAPE('','',#12);
#43=SHAPE_DEFINITION_REPRESENTATION(#42,#41);
#44=APPLICATION_CONTEXT('automotive design');
#45=APPLICATION_PROTOCOL_DEFINITION('International Standard','automotive_design',2001,#44);
#46=PRODUCT_CONTEXT('',#44,'mechanical');
#47=PRODUCT('322000101-DN25','322000101-DN25',$,(#46));
#48=PRODUCT_RELATED_PRODUCT_CATEGORY('part',$,(#47));
#49=PRODUCT_DEFINITION_FORMATION('',$,#47);
#50=PRODUCT_DEFINITION_CONTEXT('part definition',#44,'design');
#51=PRODUCT_DEFINITION('',$,#49,#50);
#57=(NAMED_UNIT(*)PLANE_ANGLE_UNIT()SI_UNIT($,.RADIAN.));
#58=DIMENSIONAL_EXPONENTS(0.0,0.0,0.0,0.0,0.0,0.0,0.0);
#59=PLANE_ANGLE_MEASURE_WITH_UNIT(PLANE_ANGLE_MEASURE(0.017453292500000),#57);
#63=(CONVERSION_BASED_UNIT('DEGREE',#59)NAMED_UNIT(#58)PLANE_ANGLE_UNIT());
#67=(NAMED_UNIT(*)SI_UNIT($,.STERADIAN.)SOLID_ANGLE_UNIT());
#71=(LENGTH_UNIT()NAMED_UNIT(*)SI_UNIT(.MILLI.,.METRE.));
#73=UNCERTAINTY_MEASURE_WITH_UNIT(LENGTH_MEASURE(0.010000000000000),#71,'DISTANCE_ACCURACY_VALUE','');
#75=(GEOMETRIC_REPRESENTATION_CONTEXT(3)GLOBAL_UNCERTAINTY_ASSIGNED_CONTEXT((#73))GLOBAL_UNIT_ASSIGNED_CONTEXT((#63,#67,#71))REPRESENTATION_CONTEXT('None','None'));
#76=AXIS2_PLACEMENT_3D('',#77,#78,#79);
#77=CARTESIAN_POINT('',(0.0,0.0,0.0));
#78=DIRECTION('',(0.0,0.0,1.0));
#79=DIRECTION('',(1.0,0.0,0.0));
#80=SHAPE_REPRESENTATION('',(#76),#75);
#81=PRODUCT_DEFINITION_SHAPE('','',#51);
#82=SHAPE_DEFINITION_REPRESENTATION(#81,#80);
#88=(NAMED_UNIT(*)PLANE_ANGLE_UNIT()SI_UNIT($,.RADIAN.));
#89=DIMENSIONAL_EXPONENTS(0.0,0.0,0.0,0.0,0.0,0.0,0.0);
#90=PLANE_ANGLE_MEASURE_WITH_UNIT(PLANE_ANGLE_MEASURE(0.017453292500000),#88);
#94=(CONVERSION_BASED_UNIT('DEGREE',#90)NAMED_UNIT(#89)PLANE_ANGLE_UNIT());
#98=(NAMED_UNIT(*)SI_UNIT($,.STERADIAN.)SOLID_ANGLE_UNIT());
#102=(LENGTH_UNIT()NAMED_UNIT(*)SI_UNIT(.MILLI.,.METRE.));
#104=UNCERTAINTY_MEASURE_WITH_UNIT(LENGTH_MEASURE(0.000001000000000),#102,'DISTANCE_ACCURACY_VALUE','');
#106=(GEOMETRIC_REPRESENTATION_CONTEXT(3)GLOBAL_UNCERTAINTY_ASSIGNED_CONTEXT((#104))GLOBAL_UNIT_ASSIGNED_CONTEXT((#94,#98,#102))REPRESENTATION_CONTEXT('','3D'));
#107=CARTESIAN_POINT('',(0.0,-50.0,-3.061617E-015));
#108=DIRECTION('',(1.0,0.0,0.0));
#109=DIRECTION('',(0.0,0.0,-1.0));
#110=AXIS2_PLACEMENT_3D('',#107,#108,#109);
#111=TOROIDAL_SURFACE('',#110,50.0,12.500000000000000);
#112=CARTESIAN_POINT('',(12.500000000000000,-50.0,50.0));
#113=VERTEX_POINT('',#112);
#114=CARTESIAN_POINT('',(0.0,-50.0,50.0));
#115=DIRECTION('',(0.0,1.0,0.0));
#116=DIRECTION('',(0.0,0.0,1.0));
#117=AXIS2_PLACEMENT_3D('',#114,#115,#116);
#118=CIRCLE('',#117,12.500000000000000);
#119=EDGE_CURVE('',#113,#113,#118,.T.);
#120=ORIENTED_EDGE('',*,*,#119,.F.);
#121=EDGE_LOOP('',(#120));
#122=FACE_OUTER_BOUND('',#121,.T.);
#123=CARTESIAN_POINT('',(12.500000000000000,1.530808E-015,0.0));
#124=VERTEX_POINT('',#123);
#125=CARTESIAN_POINT('',(0.0,0.0,-3.061617E-015));
#126=DIRECTION('',(0.0,0.0,1.0));
#127=DIRECTION('',(0.0,1.0,0.0));
#128=AXIS2_PLACEMENT_3D('',#125,#126,#127);
#129=CIRCLE('',#128,12.500000000000000);
#130=EDGE_CURVE('',#124,#124,#129,.T.);
#131=ORIENTED_EDGE('',*,*,#130,.F.);
#132=EDGE_LOOP('',(#131));
#133=FACE_BOUND('',#132,.T.);
#134=ADVANCED_FACE('',(#122,#133),#111,.F.);
#135=CARTESIAN_POINT('',(0.0,-50.0,-3.061617E-015));
#136=DIRECTION('',(1.0,0.0,0.0));
#137=DIRECTION('',(0.0,0.0,-1.0));
#138=AXIS2_PLACEMENT_3D('',#135,#136,#137);
#139=TOROIDAL_SURFACE('',#138,50.0,14.000000000000004);
#140=CARTESIAN_POINT('',(14.000000000000004,-50.0,50.0));
#141=VERTEX_POINT('',#140);
#142=CARTESIAN_POINT('',(0.0,-50.0,50.0));
#143=DIRECTION('',(0.0,1.0,0.0));
#144=DIRECTION('',(-1.0,0.0,0.0));
#145=AXIS2_PLACEMENT_3D('',#142,#143,#144);
#146=CIRCLE('',#145,14.000000000000004);
#147=EDGE_CURVE('',#141,#141,#146,.T.);
#148=ORIENTED_EDGE('',*,*,#147,.T.);
#149=EDGE_LOOP('',(#148));
#150=FACE_OUTER_BOUND('',#149,.T.);
#151=CARTESIAN_POINT('',(14.000000000000004,1.714506E-015,0.0));
#152=VERTEX_POINT('',#151);
#153=CARTESIAN_POINT('',(0.0,0.0,0.0));
#154=DIRECTION('',(0.0,0.0,-1.0));
#155=DIRECTION('',(-1.0,0.0,0.0));
#156=AXIS2_PLACEMENT_3D('',#153,#154,#155);
#157=CIRCLE('',#156,14.000000000000004);
#158=EDGE_CURVE('',#152,#152,#157,.T.);
#159=ORIENTED_EDGE('',*,*,#158,.F.);
#160=EDGE_LOOP('',(#159));
#161=FACE_BOUND('',#160,.T.);
#162=ADVANCED_FACE('',(#150,#161),#139,.T.);
#163=CARTESIAN_POINT('',(0.0,-50.0,50.0));
#164=DIRECTION('',(0.0,1.0,0.0));
#165=DIRECTION('',(-1.0,0.0,0.0));
#166=AXIS2_PLACEMENT_3D('',#163,#164,#165);
#167=PLANE('',#166);
#168=ORIENTED_EDGE('',*,*,#147,.F.);
#169=EDGE_LOOP('',(#168));
#170=FACE_OUTER_BOUND('',#169,.T.);
#171=ORIENTED_EDGE('',*,*,#119,.T.);
#172=EDGE_LOOP('',(#171));
#173=FACE_BOUND('',#172,.T.);
#174=ADVANCED_FACE('',(#170,#173),#167,.F.);
#175=CARTESIAN_POINT('',(0.0,0.0,0.0));
#176=DIRECTION('',(0.0,0.0,-1.0));
#177=DIRECTION('',(-1.0,0.0,0.0));
#178=AXIS2_PLACEMENT_3D('',#175,#176,#177);
#179=PLANE('',#178);
#180=ORIENTED_EDGE('',*,*,#158,.T.);
#181=EDGE_LOOP('',(#180));
#182=FACE_OUTER_BOUND('',#181,.T.);
#183=ORIENTED_EDGE('',*,*,#130,.T.);
#184=EDGE_LOOP('',(#183));
#185=FACE_BOUND('',#184,.T.);
#186=ADVANCED_FACE('',(#182,#185),#179,.T.);
#187=CLOSED_SHELL('',(#134,#162,#174,#186));
#188=MANIFOLD_SOLID_BREP('',#187);
#189=COLOUR_RGB('Metall - Stahl',0.639216005802155,0.639216005802155,0.686275005340576);
#190=FILL_AREA_STYLE_COLOUR('Metall - Stahl',#189);
#191=FILL_AREA_STYLE('Metall - Stahl',(#190));
#192=SURFACE_STYLE_FILL_AREA(#191);
#193=SURFACE_SIDE_STYLE('Metall - Stahl',(#192));
#194=SURFACE_STYLE_USAGE(.BOTH.,#193);
#195=PRESENTATION_STYLE_ASSIGNMENT((#194));
#196=STYLED_ITEM('',(#195),#188);
#197=MECHANICAL_DESIGN_GEOMETRIC_PRESENTATION_REPRESENTATION('',(#196,#585),#36);
#198=ADVANCED_BREP_SHAPE_REPRESENTATION('ABSR',(#188),#75);
#199=SHAPE_REPRESENTATION_RELATIONSHIP('SRR','None',#198,#80);
#200=AXIS2_PLACEMENT_3D('',#201,#202,#203);
#201=CARTESIAN_POINT('',(0.0,0.0,0.0));
#202=DIRECTION('',(0.0,0.0,1.0));
#203=DIRECTION('',(1.0,0.0,0.0));
#204=NEXT_ASSEMBLY_USAGE_OCCURRENCE('322000101-DN25:1','322000101-DN25:1','322000101-DN25:1',#12,#51,'322000101-DN25:1');
#205=PRODUCT_DEFINITION_SHAPE('322000101-DN25:1','322000101-DN25:1',#204);
#206=ITEM_DEFINED_TRANSFORMATION('322000101-DN25:1','322000101-DN25:1',#76,#200);
#210=(REPRESENTATION_RELATIONSHIP('322000101-DN25:1','322000101-DN25:1',#80,#41)REPRESENTATION_RELATIONSHIP_WITH_TRANSFORMATION(#206)SHAPE_REPRESENTATION_RELATIONSHIP());
#211=CONTEXT_DEPENDENT_SHAPE_REPRESENTATION(#210,#205);
#212=APPLICATION_CONTEXT('automotive design');
#213=APPLICATION_PROTOCOL_DEFINITION('International Standard','automotive_design',2001,#212);
#214=PRODUCT_CONTEXT('',#212,'mechanical');
#215=PRODUCT('113040101-DN25','113040101-DN25',$,(#214));
#216=PRODUCT_RELATED_PRODUCT_CATEGORY('part',$,(#215));
#217=PRODUCT_DEFINITION_FORMATION('',$,#215);
#218=PRODUCT_DEFINITION_CONTEXT('part definition',#212,'design');
#219=PRODUCT_DEFINITION('',$,#217,#218);
#225=(NAMED_UNIT(*)PLANE_ANGLE_UNIT()SI_UNIT($,.RADIAN.));
#226=DIMENSIONAL_EXPONENTS(0.0,0.0,0.0,0.0,0.0,0.0,0.0);
#227=PLANE_ANGLE_MEASURE_WITH_UNIT(PLANE_ANGLE_MEASURE(0.017453292500000),#225);
#231=(CONVERSION_BASED_UNIT('DEGREE',#227)NAMED_UNIT(#226)PLANE_ANGLE_UNIT());
#235=(NAMED_UNIT(*)SI_UNIT($,.STERADIAN.)SOLID_ANGLE_UNIT());
#239=(LENGTH_UNIT()NAMED_UNIT(*)SI_UNIT(.MILLI.,.METRE.));
#241=UNCERTAINTY_MEASURE_WITH_UNIT(LENGTH_MEASURE(0.010000000000000),#239,'DISTANCE_ACCURACY_VALUE','');
#243=(GEOMETRIC_REPRESENTATION_CONTEXT(3)GLOBAL_UNCERTAINTY_ASSIGNED_CONTEXT((#241))GLOBAL_UNIT_ASSIGNED_CONTEXT((#231,#235,#239))REPRESENTATION_CONTEXT('None','None'));
#244=AXIS2_PLACEMENT_3D('',#245,#246,#247);
#245=CARTESIAN_POINT('',(0.0,0.0,0.0));
#246=DIRECTION('',(0.0,0.0,1.0));
#247=DIRECTION('',(1.0,0.0,0.0));
#248=SHAPE_REPRESENTATION('',(#244),#243);
#249=PRODUCT_DEFINITION_SHAPE('','',#219);
#250=SHAPE_DEFINITION_REPRESENTATION(#249,#248);
#256=(NAMED_UNIT(*)PLANE_ANGLE_UNIT()SI_UNIT($,.RADIAN.));
#257=DIMENSIONAL_EXPONENTS(0.0,0.0,0.0,0.0,0.0,0.0,0.0);
#258=PLANE_ANGLE_MEASURE_WITH_UNIT(PLANE_ANGLE_MEASURE(0.017453292500000),#256);
#262=(CONVERSION_BASED_UNIT('DEGREE',#258)NAMED_UNIT(#257)PLANE_ANGLE_UNIT());
#266=(NAMED_UNIT(*)SI_UNIT($,.STERADIAN.)SOLID_ANGLE_UNIT());
#270=(LENGTH_UNIT()NAMED_UNIT(*)SI_UNIT(.MILLI.,.METRE.));
#272=UNCERTAINTY_MEASURE_WITH_UNIT(LENGTH_MEASURE(0.000001000000000),#270,'DISTANCE_ACCURACY_VALUE','');
#274=(GEOMETRIC_REPRESENTATION_CONTEXT(3)GLOBAL_UNCERTAINTY_ASSIGNED_CONTEXT((#272))GLOBAL_UNIT_ASSIGNED_CONTEXT((#262,#266,#270))REPRESENTATION_CONTEXT('','3D'));
#275=CARTESIAN_POINT('',(-21.750000000000004,0.0,0.0));
#276=DIRECTION('',(1.0,0.0,0.0));
#277=DIRECTION('',(0.0,-1.0,0.0));
#278=AXIS2_PLACEMENT_3D('',#275,#276,#277);
#279=CONICAL_SURFACE('',#278,25.250000000000000,45.000000000000178);
#280=CARTESIAN_POINT('',(-22.500000000000000,24.499999999999996,3.000286E-015));
#281=VERTEX_POINT('',#280);
#282=CARTESIAN_POINT('',(-22.500000000000000,0.0,0.0));
#283=DIRECTION('',(1.0,0.0,0.0));
#284=DIRECTION('',(0.0,-1.0,0.0));
#285=AXIS2_PLACEMENT_3D('',#282,#283,#284);
#286=CIRCLE('',#285,24.499999999999996);
#287=EDGE_CURVE('',#281,#281,#286,.T.);
#288=ORIENTED_EDGE('',*,*,#287,.T.);
#289=EDGE_LOOP('',(#288));
#290=FACE_OUTER_BOUND('',#289,.T.);
#291=CARTESIAN_POINT('',(-21.000000000000007,26.0,-3.183977E-015));
#292=VERTEX_POINT('',#291);
#293=CARTESIAN_POINT('',(-21.000000000000007,0.0,0.0));
#294=DIRECTION('',(-1.0,0.0,0.0));
#295=DIRECTION('',(0.0,-1.0,0.0));
#296=AXIS2_PLACEMENT_3D('',#293,#294,#295);
#297=CIRCLE('',#296,26.0);
#298=EDGE_CURVE('',#292,#292,#297,.T.);
#299=ORIENTED_EDGE('',*,*,#298,.T.);
#300=EDGE_LOOP('',(#299));
#301=FACE_BOUND('',#300,.T.);
#302=ADVANCED_FACE('',(#290,#301),#279,.T.);
#303=CARTESIAN_POINT('',(-22.500000000000000,23.887822173508923,0.0));
#304=DIRECTION('',(-1.0,0.0,0.0));
#305=DIRECTION('',(0.0,0.0,1.0));
#306=AXIS2_PLACEMENT_3D('',#303,#304,#305);
#307=PLANE('',#306);
#308=ORIENTED_EDGE('',*,*,#287,.F.);
#309=EDGE_LOOP('',(#308));
#310=FACE_OUTER_BOUND('',#309,.T.);
#311=CARTESIAN_POINT('',(-22.500000000000000,21.775644347017852,0.0));
#312=VERTEX_POINT('',#311);
#313=CARTESIAN_POINT('',(-22.500000000000000,0.0,0.0));
#314=DIRECTION('',(1.0,0.0,0.0));
#315=DIRECTION('',(0.0,1.0,0.0));
#316=AXIS2_PLACEMENT_3D('',#313,#314,#315);
#317=CIRCLE('',#316,21.775644347017852);
#318=EDGE_CURVE('',#312,#312,#317,.T.);
#319=ORIENTED_EDGE('',*,*,#318,.T.);
#320=EDGE_LOOP('',(#319));
#321=FACE_BOUND('',#320,.T.);
#322=ADVANCED_FACE('',(#310,#321),#307,.T.);
#323=CARTESIAN_POINT('',(-15.500000000000004,0.0,0.0));
#324=DIRECTION('',(1.0,0.0,0.0));
#325=DIRECTION('',(0.0,1.0,0.0));
#326=AXIS2_PLACEMENT_3D('',#323,#324,#325);
#327=CYLINDRICAL_SURFACE('',#326,26.0);
#328=CARTESIAN_POINT('',(-8.500000000000004,26.000000000000007,0.0));
#329=VERTEX_POINT('',#328);
#330=CARTESIAN_POINT('',(-8.500000000000004,0.0,0.0));
#331=DIRECTION('',(1.0,0.0,0.0));
#332=DIRECTION('',(0.0,1.0,0.0));
#333=AXIS2_PLACEMENT_3D('',#330,#331,#332);
#334=CIRCLE('',#333,26.000000000000007);
#335=EDGE_CURVE('',#329,#329,#334,.T.);
#336=ORIENTED_EDGE('',*,*,#335,.F.);
#337=EDGE_LOOP('',(#336));
#338=FACE_OUTER_BOUND('',#337,.T.);
#339=ORIENTED_EDGE('',*,*,#298,.F.);
#340=EDGE_LOOP('',(#339));
#341=FACE_BOUND('',#340,.T.);
#342=ADVANCED_FACE('',(#338,#341),#327,.T.);
#343=CARTESIAN_POINT('',(-7.750000000000002,0.0,0.0));
#344=DIRECTION('',(1.0,0.0,0.0));
#345=DIRECTION('',(0.0,1.0,0.0));
#346=AXIS2_PLACEMENT_3D('',#343,#344,#345);
#347=CYLINDRICAL_SURFACE('',#346,12.500000000000000);
#348=CARTESIAN_POINT('',(-15.500000000000000,12.499999999999996,0.0));
#349=VERTEX_POINT('',#348);
#350=CARTESIAN_POINT('',(-15.500000000000000,0.0,0.0));
#351=DIRECTION('',(1.0,0.0,0.0));
#352=DIRECTION('',(0.0,1.0,0.0));
#353=AXIS2_PLACEMENT_3D('',#350,#351,#352);
#354=CIRCLE('',#353,12.499999999999996);
#355=EDGE_CURVE('',#349,#349,#354,.T.);
#356=ORIENTED_EDGE('',*,*,#355,.F.);
#357=EDGE_LOOP('',(#356));
#358=FACE_OUTER_BOUND('',#357,.T.);
#359=CARTESIAN_POINT('',(-1.110223E-015,12.500000000000004,0.0));
#360=VERTEX_POINT('',#359);
#361=CARTESIAN_POINT('',(-1.110223E-015,0.0,0.0));
#362=DIRECTION('',(1.0,0.0,0.0));
#363=DIRECTION('',(0.0,1.0,0.0));
#364=AXIS2_PLACEMENT_3D('',#361,#362,#363);
#365=CIRCLE('',#364,12.500000000000004);
#366=EDGE_CURVE('',#360,#360,#365,.T.);
#367=ORIENTED_EDGE('',*,*,#366,.T.);
#368=EDGE_LOOP('',(#367));
#369=FACE_BOUND('',#368,.T.);
#370=ADVANCED_FACE('',(#358,#369),#347,.F.);
#371=CARTESIAN_POINT('',(-15.500000000000004,13.749999999999998,0.0));
#372=DIRECTION('',(-1.0,0.0,0.0));
#373=DIRECTION('',(0.0,0.0,1.0));
#374=AXIS2_PLACEMENT_3D('',#371,#372,#373);
#375=PLANE('',#374);
#376=CARTESIAN_POINT('',(-15.500000000000004,15.0,0.0));
#377=VERTEX_POINT('',#376);
#378=CARTESIAN_POINT('',(-15.500000000000004,0.0,0.0));
#379=DIRECTION('',(1.0,0.0,0.0));
#380=DIRECTION('',(0.0,1.0,0.0));
#381=AXIS2_PLACEMENT_3D('',#378,#379,#380);
#382=CIRCLE('',#381,15.0);
#383=EDGE_CURVE('',#377,#377,#382,.T.);
#384=ORIENTED_EDGE('',*,*,#383,.F.);
#385=EDGE_LOOP('',(#384));
#386=FACE_OUTER_BOUND('',#385,.T.);
#387=ORIENTED_EDGE('',*,*,#355,.T.);
#388=EDGE_LOOP('',(#387));
#389=FACE_BOUND('',#388,.T.);
#390=ADVANCED_FACE('',(#386,#389),#375,.T.);
#391=CARTESIAN_POINT('',(-13.750000000000002,0.0,0.0));
#392=DIRECTION('',(1.0,0.0,0.0));
#393=DIRECTION('',(0.0,1.0,0.0));
#394=AXIS2_PLACEMENT_3D('',#391,#392,#393);
#395=CYLINDRICAL_SURFACE('',#394,15.0);
#396=CARTESIAN_POINT('',(-12.000000000000002,15.0,0.0));
#397=VERTEX_POINT('',#396);
#398=CARTESIAN_POINT('',(-12.000000000000002,0.0,0.0));
#399=DIRECTION('',(1.0,0.0,0.0));
#400=DIRECTION('',(0.0,1.0,0.0));
#401=AXIS2_PLACEMENT_3D('',#398,#399,#400);
#402=CIRCLE('',#401,15.0);
#403=EDGE_CURVE('',#397,#397,#402,.T.);
#404=ORIENTED_EDGE('',*,*,#403,.F.);
#405=EDGE_LOOP('',(#404));
#406=FACE_OUTER_BOUND('',#405,.T.);
#407=ORIENTED_EDGE('',*,*,#383,.T.);
#408=EDGE_LOOP('',(#407));
#409=FACE_BOUND('',#408,.T.);
#410=ADVANCED_FACE('',(#406,#409),#395,.T.);
#411=CARTESIAN_POINT('',(-12.000000000000002,17.450000000000003,0.0));
#412=DIRECTION('',(-1.0,0.0,0.0));
#413=DIRECTION('',(0.0,0.0,1.0));
#414=AXIS2_PLACEMENT_3D('',#411,#412,#413);
#415=PLANE('',#414);
#416=CARTESIAN_POINT('',(-12.000000000000002,19.899999999999999,0.0));
#417=VERTEX_POINT('',#416);
#418=CARTESIAN_POINT('',(-12.000000000000002,0.0,0.0));
#419=DIRECTION('',(1.0,0.0,0.0));
#420=DIRECTION('',(0.0,1.0,0.0));
#421=AXIS2_PLACEMENT_3D('',#418,#419,#420);
#422=CIRCLE('',#421,19.899999999999999);
#423=EDGE_CURVE('',#417,#417,#422,.T.);
#424=ORIENTED_EDGE('',*,*,#423,.F.);
#425=EDGE_LOOP('',(#424));
#426=FACE_OUTER_BOUND('',#425,.T.);
#427=ORIENTED_EDGE('',*,*,#403,.T.);
#428=EDGE_LOOP('',(#427));
#429=FACE_BOUND('',#428,.T.);
#430=ADVANCED_FACE('',(#426,#429),#415,.T.);
#431=CARTESIAN_POINT('',(-13.750000000000002,0.0,0.0));
#432=DIRECTION('',(1.0,0.0,0.0));
#433=DIRECTION('',(0.0,1.0,0.0));
#434=AXIS2_PLACEMENT_3D('',#431,#432,#433);
#435=CYLINDRICAL_SURFACE('',#434,19.899999999999999);
#436=CARTESIAN_POINT('',(-15.500000000000004,19.899999999999999,0.0));
#437=VERTEX_POINT('',#436);
#438=CARTESIAN_POINT('',(-15.500000000000004,0.0,0.0));
#439=DIRECTION('',(1.0,0.0,0.0));
#440=DIRECTION('',(0.0,1.0,0.0));
#441=AXIS2_PLACEMENT_3D('',#438,#439,#440);
#442=CIRCLE('',#441,19.899999999999999);
#443=EDGE_CURVE('',#437,#437,#442,.T.);
#444=ORIENTED_EDGE('',*,*,#443,.F.);
#445=EDGE_LOOP('',(#444));
#446=FACE_OUTER_BOUND('',#445,.T.);
#447=ORIENTED_EDGE('',*,*,#423,.T.);
#448=EDGE_LOOP('',(#447));
#449=FACE_BOUND('',#448,.T.);
#450=ADVANCED_FACE('',(#446,#449),#435,.F.);
#451=CARTESIAN_POINT('',(-19.0,0.0,0.0));
#452=DIRECTION('',(-1.0,0.0,0.0));
#453=DIRECTION('',(0.0,1.0,0.0));
#454=AXIS2_PLACEMENT_3D('',#451,#452,#453);
#455=CONICAL_SURFACE('',#454,20.837822173508922,14.999999999999961);
#456=ORIENTED_EDGE('',*,*,#318,.F.);
#457=EDGE_LOOP('',(#456));
#458=FACE_OUTER_BOUND('',#457,.T.);
#459=ORIENTED_EDGE('',*,*,#443,.T.);
#460=EDGE_LOOP('',(#459));
#461=FACE_BOUND('',#460,.T.);
#462=ADVANCED_FACE('',(#458,#461),#455,.F.);
#463=CARTESIAN_POINT('',(-7.631827982761248,0.0,0.0));
#464=DIRECTION('',(-1.0,0.0,0.0));
#465=DIRECTION('',(0.0,1.0,0.0));
#466=AXIS2_PLACEMENT_3D('',#463,#464,#465);
#467=CONICAL_SURFACE('',#466,21.076351822333066,79.999999999999915);
#468=CARTESIAN_POINT('',(-6.763655965522492,16.152703644666136,0.0));
#469=VERTEX_POINT('',#468);
#470=CARTESIAN_POINT('',(-6.763655965522492,0.0,0.0));
#471=DIRECTION('',(1.0,0.0,0.0));
#472=DIRECTION('',(0.0,1.0,0.0));
#473=AXIS2_PLACEMENT_3D('',#470,#471,#472);
#474=CIRCLE('',#473,16.152703644666136);
#475=EDGE_CURVE('',#469,#469,#474,.T.);
#476=ORIENTED_EDGE('',*,*,#475,.F.);
#477=EDGE_LOOP('',(#476));
#478=FACE_OUTER_BOUND('',#477,.T.);
#479=ORIENTED_EDGE('',*,*,#335,.T.);
#480=EDGE_LOOP('',(#479));
#481=FACE_BOUND('',#480,.T.);
#482=ADVANCED_FACE('',(#478,#481),#467,.T.);
#483=CARTESIAN_POINT('',(-4.794040459498079,-1.775679E-015,14.500000000000000));
#484=CARTESIAN_POINT('',(-6.794040459498079,-1.775679E-015,14.500000000000000));
#485=CARTESIAN_POINT('',(-6.794040459498079,-2.020600E-015,16.500000000000000));
#486=CARTESIAN_POINT('',(-6.794040459498079,-2.265522E-015,18.500000000000000));
#487=CARTESIAN_POINT('',(-4.794040459498079,-2.265522E-015,18.500000000000000));
#488=CARTESIAN_POINT('',(-4.794040459498079,-14.499999999999998,14.499999999999995));
#489=CARTESIAN_POINT('',(-6.794040459498079,-14.499999999999998,14.499999999999995));
#490=CARTESIAN_POINT('',(-6.794040459498079,-16.500000000000000,16.499999999999993));
#491=CARTESIAN_POINT('',(-6.794040459498079,-18.500000000000000,18.499999999999993));
#492=CARTESIAN_POINT('',(-4.794040459498079,-18.500000000000000,18.499999999999993));
#493=CARTESIAN_POINT('',(-4.794040459498079,-14.500000000000000,-1.775679E-015));
#494=CARTESIAN_POINT('',(-6.794040459498079,-14.500000000000000,-1.775679E-015));
#495=CARTESIAN_POINT('',(-6.794040459498079,-16.500000000000000,-2.020600E-015));
#496=CARTESIAN_POINT('',(-6.794040459498079,-18.500000000000000,-2.265522E-015));
#497=CARTESIAN_POINT('',(-4.794040459498079,-18.500000000000000,-2.265522E-015));
#498=CARTESIAN_POINT('',(-4.794040459498079,-14.499999999999995,-14.499999999999998));
#499=CARTESIAN_POINT('',(-6.794040459498079,-14.499999999999995,-14.499999999999998));
#500=CARTESIAN_POINT('',(-6.794040459498079,-16.499999999999993,-16.500000000000000));
#501=CARTESIAN_POINT('',(-6.794040459498079,-18.499999999999993,-18.500000000000000));
#502=CARTESIAN_POINT('',(-4.794040459498079,-18.499999999999993,-18.500000000000000));
#503=CARTESIAN_POINT('',(-4.794040459498079,1.775679E-015,-14.500000000000000));
#504=CARTESIAN_POINT('',(-6.794040459498079,1.775679E-015,-14.500000000000000));
#505=CARTESIAN_POINT('',(-6.794040459498079,2.020600E-015,-16.500000000000000));
#506=CARTESIAN_POINT('',(-6.794040459498079,2.265522E-015,-18.500000000000000));
#507=CARTESIAN_POINT('',(-4.794040459498079,2.265522E-015,-18.500000000000000));
#508=CARTESIAN_POINT('',(-4.794040459498079,14.499999999999998,-14.499999999999995));
#509=CARTESIAN_POINT('',(-6.794040459498079,14.499999999999998,-14.499999999999995));
#510=CARTESIAN_POINT('',(-6.794040459498079,16.500000000000000,-16.499999999999993));
#511=CARTESIAN_POINT('',(-6.794040459498079,18.500000000000000,-18.499999999999993));
#512=CARTESIAN_POINT('',(-4.794040459498079,18.500000000000000,-18.499999999999993));
#513=CARTESIAN_POINT('',(-4.794040459498079,14.500000000000000,1.775679E-015));
#514=CARTESIAN_POINT('',(-6.794040459498079,14.500000000000000,1.775679E-015));
#515=CARTESIAN_POINT('',(-6.794040459498079,16.500000000000000,2.020600E-015));
#516=CARTESIAN_POINT('',(-6.794040459498079,18.500000000000000,2.265522E-015));
#517=CARTESIAN_POINT('',(-4.794040459498079,18.500000000000000,2.265522E-015));
#518=CARTESIAN_POINT('',(-4.794040459498079,14.499999999999995,14.499999999999998));
#519=CARTESIAN_POINT('',(-6.794040459498079,14.499999999999995,14.499999999999998));
#520=CARTESIAN_POINT('',(-6.794040459498079,16.499999999999993,16.500000000000000));
#521=CARTESIAN_POINT('',(-6.794040459498079,18.499999999999993,18.500000000000000));
#522=CARTESIAN_POINT('',(-4.794040459498079,18.499999999999993,18.500000000000000));
#523=CARTESIAN_POINT('',(-4.794040459498079,-1.775679E-015,14.500000000000000));
#524=CARTESIAN_POINT('',(-6.794040459498079,-1.775679E-015,14.500000000000000));
#525=CARTESIAN_POINT('',(-6.794040459498079,-2.020600E-015,16.500000000000000));
#526=CARTESIAN_POINT('',(-6.794040459498079,-2.265522E-015,18.500000000000000));
#527=CARTESIAN_POINT('',(-4.794040459498079,-2.265522E-015,18.500000000000000));
#535=(BOUNDED_SURFACE()B_SPLINE_SURFACE(2,2,((#483,#488,#493,#498,#503,#508,#513,#518,#523),(#484,#489,#494,#499,#504,#509,#514,#519,#524),(#485,#490,#495,#500,#505,#510,#515,#520,#525),(#486,#491,#496,#501,#506,#511,#516,#521,#526),(#487,#492,#497,#502,#507,#512,#517,#522,#527)),.UNSPECIFIED.,.F.,.T.,.U.)B_SPLINE_SURFACE_WITH_KNOTS((3,2,3),(3,2,2,2,3),(-3.141592653589794,-1.570796326794897,4.440892E-016),(0.0,1.570796326794897,3.141592653589793,4.712388980384690,6.283185307179586),.UNSPECIFIED.)GEOMETRIC_REPRESENTATION_ITEM()RATIONAL_B_SPLINE_SURFACE(((1.0,0.707106781186548,1.0,0.707106781186548,1.0,0.707106781186548,1.0,0.707106781186548,1.0),(0.707106781186549,0.500000000000001,0.707106781186549,0.500000000000001,0.707106781186549,0.500000000000001,0.707106781186549,0.500000000000001,0.707106781186549),(1.0,0.707106781186548,1.0,0.707106781186548,1.0,0.707106781186548,1.0,0.707106781186548,1.0),(0.707106781186549,0.500000000000001,0.707106781186549,0.500000000000001,0.707106781186549,0.500000000000001,0.707106781186549,0.500000000000001,0.707106781186549),(1.0,0.707106781186548,1.0,0.707106781186548,1.0,0.707106781186548,1.0,0.707106781186548,1.0)))REPRESENTATION_ITEM('')SURFACE());
#536=CARTESIAN_POINT('',(-4.794040459498079,14.500000000000004,0.0));
#537=VERTEX_POINT('',#536);
#538=CARTESIAN_POINT('',(-4.794040459498079,0.0,0.0));
#539=DIRECTION('',(1.0,0.0,0.0));
#540=DIRECTION('',(0.0,1.0,0.0));
#541=AXIS2_PLACEMENT_3D('',#538,#539,#540);
#542=CIRCLE('',#541,14.500000000000004);
#543=EDGE_CURVE('',#537,#537,#542,.T.);
#544=ORIENTED_EDGE('',*,*,#543,.F.);
#545=EDGE_LOOP('',(#544));
#546=FACE_OUTER_BOUND('',#545,.T.);
#547=ORIENTED_EDGE('',*,*,#475,.T.);
#548=EDGE_LOOP('',(#547));
#549=FACE_BOUND('',#548,.T.);
#550=ADVANCED_FACE('',(#546,#549),#535,.T.);
#551=CARTESIAN_POINT('',(-2.397020229749040,0.0,0.0));
#552=DIRECTION('',(1.0,0.0,0.0));
#553=DIRECTION('',(0.0,1.0,0.0));
#554=AXIS2_PLACEMENT_3D('',#551,#552,#553);
#555=CYLINDRICAL_SURFACE('',#554,14.500000000000002);
#556=CARTESIAN_POINT('',(-1.665335E-015,14.500000000000002,0.0));
#557=VERTEX_POINT('',#556);
#558=CARTESIAN_POINT('',(-1.665335E-015,0.0,0.0));
#559=DIRECTION('',(1.0,0.0,0.0));
#560=DIRECTION('',(0.0,1.0,0.0));
#561=AXIS2_PLACEMENT_3D('',#558,#559,#560);
#562=CIRCLE('',#561,14.500000000000002);
#563=EDGE_CURVE('',#557,#557,#562,.T.);
#564=ORIENTED_EDGE('',*,*,#563,.F.);
#565=EDGE_LOOP('',(#564));
#566=FACE_OUTER_BOUND('',#565,.T.);
#567=ORIENTED_EDGE('',*,*,#543,.T.);
#568=EDGE_LOOP('',(#567));
#569=FACE_BOUND('',#568,.T.);
#570=ADVANCED_FACE('',(#566,#569),#555,.T.);
#571=CARTESIAN_POINT('',(-1.387779E-015,13.500000000000004,0.0));
#572=DIRECTION('',(1.0,0.0,0.0));
#573=DIRECTION('',(0.0,0.0,-1.0));
#574=AXIS2_PLACEMENT_3D('',#571,#572,#573);
#575=PLANE('',#574);
#576=ORIENTED_EDGE('',*,*,#563,.T.);
#577=EDGE_LOOP('',(#576));
#578=FACE_OUTER_BOUND('',#577,.T.);
#579=ORIENTED_EDGE('',*,*,#366,.F.);
#580=EDGE_LOOP('',(#579));
#581=FACE_BOUND('',#580,.T.);
#582=ADVANCED_FACE('',(#578,#581),#575,.T.);
#583=CLOSED_SHELL('',(#302,#322,#342,#370,#390,#410,#430,#450,#462,#482,#550,#570,#582));
#584=MANIFOLD_SOLID_BREP('',#583);
#585=STYLED_ITEM('',(#195),#584);
#586=ADVANCED_BREP_SHAPE_REPRESENTATION('ABSR',(#584),#243);
#587=SHAPE_REPRESENTATION_RELATIONSHIP('SRR','None',#586,#248);
#588=AXIS2_PLACEMENT_3D('',#589,#590,#591);
#589=CARTESIAN_POINT('',(0.0,-50.0,50.0));
#590=DIRECTION('',(6.123234E-017,6.123234E-017,1.0));
#591=DIRECTION('',(0.0,1.0,-6.123234E-017));
#592=NEXT_ASSEMBLY_USAGE_OCCURRENCE('113040101-DN25:1','113040101-DN25:1','113040101-DN25:1',#12,#219,'113040101-DN25:1');
#593=PRODUCT_DEFINITION_SHAPE('113040101-DN25:1','113040101-DN25:1',#592);
#594=ITEM_DEFINED_TRANSFORMATION('113040101-DN25:1','113040101-DN25:1',#244,#588);
#598=(REPRESENTATION_RELATIONSHIP('113040101-DN25:1','113040101-DN25:1',#248,#41)REPRESENTATION_RELATIONSHIP_WITH_TRANSFORMATION(#594)SHAPE_REPRESENTATION_RELATIONSHIP());
#599=CONTEXT_DEPENDENT_SHAPE_REPRESENTATION(#598,#593);
#600=AXIS2_PLACEMENT_3D('',#601,#602,#603);
#601=CARTESIAN_POINT('',(0.0,0.0,-2.220446E-015));
#602=DIRECTION('',(-1.0,0.0,0.0));
#603=DIRECTION('',(0.0,0.0,1.0));
#604=NEXT_ASSEMBLY_USAGE_OCCURRENCE('113040101-DN25:2','113040101-DN25:2','113040101-DN25:2',#12,#219,'113040101-DN25:2');
#605=PRODUCT_DEFINITION_SHAPE('113040101-DN25:2','113040101-DN25:2',#604);
#606=ITEM_DEFINED_TRANSFORMATION('113040101-DN25:2','113040101-DN25:2',#244,#600);
#610=(REPRESENTATION_RELATIONSHIP('113040101-DN25:2','113040101-DN25:2',#248,#41)REPRESENTATION_RELATIONSHIP_WITH_TRANSFORMATION(#606)SHAPE_REPRESENTATION_RELATIONSHIP());
#611=CONTEXT_DEPENDENT_SHAPE_REPRESENTATION(#610,#605);
ENDSEC;
END-ISO-10303-21;
