ISO-10303-21;
HEADER;
/* Generated by software containing ST-Developer
 * from STEP Tools, Inc. (www.steptools.com) 
 */

FILE_DESCRIPTION(
/* description */ (''),
/* implementation_level */ '2;1');

FILE_NAME(
/* name */ '43214.stp',
/* time_stamp */ '2023-09-08T11:22:44+02:00',
/* author */ ('JANAN'),
/* organization */ (''),
/* preprocessor_version */ 'ST-DEVELOPER v19.2',
/* originating_system */ 'Autodesk Inventor 2023',
/* authorisation */ '');

FILE_SCHEMA (('AUTOMOTIVE_DESIGN { 1 0 10303 214 3 1 1 }'));
ENDSEC;

DATA;
#10=MECHANICAL_DESIGN_GEOMETRIC_PRESENTATION_REPRESENTATION('',(#216,#217,
#218,#219,#220,#221,#222,#223,#224,#225,#226,#227,#228,#229,#230,#231,#232),
#471);
#11=SHAPE_REPRESENTATION_RELATIONSHIP('SRR','None',#478,#12);
#12=ADVANCED_BREP_SHAPE_REPRESENTATION('',(#13),#470);
#13=MANIFOLD_SOLID_BREP('Volumenk\X\F6rper1',#249);
#14=CONICAL_SURFACE('',#286,1.,0.785398163397);
#15=CONICAL_SURFACE('',#292,1.,0.785398163397);
#16=CONICAL_SURFACE('',#299,12.6,0.837758040957);
#17=CONICAL_SURFACE('',#309,11.7617387873,0.837758040957);
#18=FACE_BOUND('',#61,.T.);
#19=FACE_BOUND('',#66,.T.);
#20=PLANE('',#283);
#21=PLANE('',#294);
#22=PLANE('',#310);
#23=PLANE('',#311);
#24=LINE('',#413,#31);
#25=LINE('',#418,#32);
#26=LINE('',#431,#33);
#27=LINE('',#438,#34);
#28=LINE('',#441,#35);
#29=LINE('',#453,#36);
#30=LINE('',#465,#37);
#31=VECTOR('',#328,11.1);
#32=VECTOR('',#333,12.6);
#33=VECTOR('',#348,1.);
#34=VECTOR('',#357,11.65);
#35=VECTOR('',#360,1.);
#36=VECTOR('',#377,12.6);
#37=VECTOR('',#396,11.7617387873);
#38=CYLINDRICAL_SURFACE('',#277,11.1);
#39=CYLINDRICAL_SURFACE('',#279,12.6);
#40=CYLINDRICAL_SURFACE('',#289,11.65);
#41=FACE_OUTER_BOUND('',#57,.T.);
#42=FACE_OUTER_BOUND('',#58,.T.);
#43=FACE_OUTER_BOUND('',#59,.T.);
#44=FACE_OUTER_BOUND('',#60,.T.);
#45=FACE_OUTER_BOUND('',#62,.T.);
#46=FACE_OUTER_BOUND('',#63,.T.);
#47=FACE_OUTER_BOUND('',#64,.T.);
#48=FACE_OUTER_BOUND('',#65,.T.);
#49=FACE_OUTER_BOUND('',#67,.T.);
#50=FACE_OUTER_BOUND('',#68,.T.);
#51=FACE_OUTER_BOUND('',#69,.T.);
#52=FACE_OUTER_BOUND('',#70,.T.);
#53=FACE_OUTER_BOUND('',#71,.T.);
#54=FACE_OUTER_BOUND('',#72,.T.);
#55=FACE_OUTER_BOUND('',#73,.T.);
#56=FACE_OUTER_BOUND('',#74,.T.);
#57=EDGE_LOOP('',(#149,#150,#151,#152,#153));
#58=EDGE_LOOP('',(#154,#155,#156,#157,#158));
#59=EDGE_LOOP('',(#159,#160,#161,#162,#163));
#60=EDGE_LOOP('',(#164));
#61=EDGE_LOOP('',(#165));
#62=EDGE_LOOP('',(#166,#167,#168,#169,#170));
#63=EDGE_LOOP('',(#171,#172,#173,#174,#175,#176));
#64=EDGE_LOOP('',(#177,#178,#179,#180,#181));
#65=EDGE_LOOP('',(#182));
#66=EDGE_LOOP('',(#183));
#67=EDGE_LOOP('',(#184,#185,#186,#187));
#68=EDGE_LOOP('',(#188,#189,#190,#191));
#69=EDGE_LOOP('',(#192,#193,#194,#195));
#70=EDGE_LOOP('',(#196,#197,#198,#199,#200));
#71=EDGE_LOOP('',(#201,#202,#203,#204));
#72=EDGE_LOOP('',(#205,#206,#207,#208));
#73=EDGE_LOOP('',(#209));
#74=EDGE_LOOP('',(#210));
#75=CIRCLE('',#273,11.1);
#76=CIRCLE('',#274,11.1);
#77=CIRCLE('',#275,2.);
#78=CIRCLE('',#276,11.7617387873);
#79=CIRCLE('',#278,11.1);
#80=CIRCLE('',#280,12.6);
#81=CIRCLE('',#281,12.6);
#82=CIRCLE('',#282,12.6);
#83=CIRCLE('',#284,12.6);
#84=CIRCLE('',#285,12.05);
#85=CIRCLE('',#287,11.65);
#86=CIRCLE('',#288,11.65);
#87=CIRCLE('',#290,11.65);
#88=CIRCLE('',#291,11.65);
#89=CIRCLE('',#293,12.05);
#90=CIRCLE('',#295,12.6);
#91=CIRCLE('',#297,13.6706089702);
#92=CIRCLE('',#298,1.6);
#93=CIRCLE('',#300,14.5739352888);
#94=CIRCLE('',#302,2.95);
#95=CIRCLE('',#304,2.5);
#96=CIRCLE('',#305,10.1);
#97=CIRCLE('',#307,10.1);
#98=CIRCLE('',#308,1.);
#99=VERTEX_POINT('',#403);
#100=VERTEX_POINT('',#404);
#101=VERTEX_POINT('',#407);
#102=VERTEX_POINT('',#411);
#103=VERTEX_POINT('',#415);
#104=VERTEX_POINT('',#417);
#105=VERTEX_POINT('',#419);
#106=VERTEX_POINT('',#423);
#107=VERTEX_POINT('',#425);
#108=VERTEX_POINT('',#428);
#109=VERTEX_POINT('',#429);
#110=VERTEX_POINT('',#434);
#111=VERTEX_POINT('',#435);
#112=VERTEX_POINT('',#440);
#113=VERTEX_POINT('',#444);
#114=VERTEX_POINT('',#447);
#115=VERTEX_POINT('',#451);
#116=VERTEX_POINT('',#457);
#117=VERTEX_POINT('',#461);
#118=EDGE_CURVE('',#99,#100,#75,.T.);
#119=EDGE_CURVE('',#100,#99,#76,.T.);
#120=EDGE_CURVE('',#100,#101,#77,.T.);
#121=EDGE_CURVE('',#101,#101,#78,.T.);
#122=EDGE_CURVE('',#102,#102,#79,.T.);
#123=EDGE_CURVE('',#102,#99,#24,.T.);
#124=EDGE_CURVE('',#103,#103,#80,.T.);
#125=EDGE_CURVE('',#103,#104,#25,.T.);
#126=EDGE_CURVE('',#104,#105,#81,.T.);
#127=EDGE_CURVE('',#105,#104,#82,.T.);
#128=EDGE_CURVE('',#106,#106,#83,.T.);
#129=EDGE_CURVE('',#107,#107,#84,.T.);
#130=EDGE_CURVE('',#108,#109,#85,.T.);
#131=EDGE_CURVE('',#108,#107,#26,.T.);
#132=EDGE_CURVE('',#109,#108,#86,.T.);
#133=EDGE_CURVE('',#110,#111,#87,.T.);
#134=EDGE_CURVE('',#111,#110,#88,.T.);
#135=EDGE_CURVE('',#111,#109,#27,.T.);
#136=EDGE_CURVE('',#110,#112,#28,.T.);
#137=EDGE_CURVE('',#112,#112,#89,.T.);
#138=EDGE_CURVE('',#113,#113,#90,.T.);
#139=EDGE_CURVE('',#114,#114,#91,.T.);
#140=EDGE_CURVE('',#114,#113,#92,.T.);
#141=EDGE_CURVE('',#115,#115,#93,.T.);
#142=EDGE_CURVE('',#115,#103,#29,.T.);
#143=EDGE_CURVE('',#106,#115,#94,.T.);
#144=EDGE_CURVE('',#105,#116,#95,.T.);
#145=EDGE_CURVE('',#116,#116,#96,.T.);
#146=EDGE_CURVE('',#117,#117,#97,.T.);
#147=EDGE_CURVE('',#117,#102,#98,.T.);
#148=EDGE_CURVE('',#101,#114,#30,.T.);
#149=ORIENTED_EDGE('',*,*,#118,.F.);
#150=ORIENTED_EDGE('',*,*,#119,.F.);
#151=ORIENTED_EDGE('',*,*,#120,.T.);
#152=ORIENTED_EDGE('',*,*,#121,.T.);
#153=ORIENTED_EDGE('',*,*,#120,.F.);
#154=ORIENTED_EDGE('',*,*,#122,.F.);
#155=ORIENTED_EDGE('',*,*,#123,.T.);
#156=ORIENTED_EDGE('',*,*,#118,.T.);
#157=ORIENTED_EDGE('',*,*,#119,.T.);
#158=ORIENTED_EDGE('',*,*,#123,.F.);
#159=ORIENTED_EDGE('',*,*,#124,.F.);
#160=ORIENTED_EDGE('',*,*,#125,.T.);
#161=ORIENTED_EDGE('',*,*,#126,.T.);
#162=ORIENTED_EDGE('',*,*,#127,.T.);
#163=ORIENTED_EDGE('',*,*,#125,.F.);
#164=ORIENTED_EDGE('',*,*,#128,.T.);
#165=ORIENTED_EDGE('',*,*,#129,.F.);
#166=ORIENTED_EDGE('',*,*,#130,.F.);
#167=ORIENTED_EDGE('',*,*,#131,.T.);
#168=ORIENTED_EDGE('',*,*,#129,.T.);
#169=ORIENTED_EDGE('',*,*,#131,.F.);
#170=ORIENTED_EDGE('',*,*,#132,.F.);
#171=ORIENTED_EDGE('',*,*,#133,.F.);
#172=ORIENTED_EDGE('',*,*,#134,.F.);
#173=ORIENTED_EDGE('',*,*,#135,.T.);
#174=ORIENTED_EDGE('',*,*,#132,.T.);
#175=ORIENTED_EDGE('',*,*,#130,.T.);
#176=ORIENTED_EDGE('',*,*,#135,.F.);
#177=ORIENTED_EDGE('',*,*,#133,.T.);
#178=ORIENTED_EDGE('',*,*,#134,.T.);
#179=ORIENTED_EDGE('',*,*,#136,.T.);
#180=ORIENTED_EDGE('',*,*,#137,.F.);
#181=ORIENTED_EDGE('',*,*,#136,.F.);
#182=ORIENTED_EDGE('',*,*,#138,.F.);
#183=ORIENTED_EDGE('',*,*,#137,.T.);
#184=ORIENTED_EDGE('',*,*,#139,.F.);
#185=ORIENTED_EDGE('',*,*,#140,.T.);
#186=ORIENTED_EDGE('',*,*,#138,.T.);
#187=ORIENTED_EDGE('',*,*,#140,.F.);
#188=ORIENTED_EDGE('',*,*,#141,.F.);
#189=ORIENTED_EDGE('',*,*,#142,.T.);
#190=ORIENTED_EDGE('',*,*,#124,.T.);
#191=ORIENTED_EDGE('',*,*,#142,.F.);
#192=ORIENTED_EDGE('',*,*,#128,.F.);
#193=ORIENTED_EDGE('',*,*,#143,.T.);
#194=ORIENTED_EDGE('',*,*,#141,.T.);
#195=ORIENTED_EDGE('',*,*,#143,.F.);
#196=ORIENTED_EDGE('',*,*,#126,.F.);
#197=ORIENTED_EDGE('',*,*,#127,.F.);
#198=ORIENTED_EDGE('',*,*,#144,.T.);
#199=ORIENTED_EDGE('',*,*,#145,.T.);
#200=ORIENTED_EDGE('',*,*,#144,.F.);
#201=ORIENTED_EDGE('',*,*,#146,.F.);
#202=ORIENTED_EDGE('',*,*,#147,.T.);
#203=ORIENTED_EDGE('',*,*,#122,.T.);
#204=ORIENTED_EDGE('',*,*,#147,.F.);
#205=ORIENTED_EDGE('',*,*,#121,.F.);
#206=ORIENTED_EDGE('',*,*,#148,.T.);
#207=ORIENTED_EDGE('',*,*,#139,.T.);
#208=ORIENTED_EDGE('',*,*,#148,.F.);
#209=ORIENTED_EDGE('',*,*,#146,.T.);
#210=ORIENTED_EDGE('',*,*,#145,.F.);
#211=TOROIDAL_SURFACE('',#272,13.1,2.);
#212=TOROIDAL_SURFACE('',#296,12.6,1.6);
#213=TOROIDAL_SURFACE('',#301,12.6,2.95);
#214=TOROIDAL_SURFACE('',#303,10.1,2.5);
#215=TOROIDAL_SURFACE('',#306,10.1,1.);
#216=STYLED_ITEM('',(#487),#233);
#217=STYLED_ITEM('',(#487),#234);
#218=STYLED_ITEM('',(#487),#235);
#219=STYLED_ITEM('',(#487),#236);
#220=STYLED_ITEM('',(#487),#237);
#221=STYLED_ITEM('',(#487),#238);
#222=STYLED_ITEM('',(#487),#239);
#223=STYLED_ITEM('',(#487),#240);
#224=STYLED_ITEM('',(#487),#241);
#225=STYLED_ITEM('',(#487),#242);
#226=STYLED_ITEM('',(#487),#243);
#227=STYLED_ITEM('',(#487),#244);
#228=STYLED_ITEM('',(#487),#245);
#229=STYLED_ITEM('',(#487),#246);
#230=STYLED_ITEM('',(#487),#247);
#231=STYLED_ITEM('',(#487),#248);
#232=STYLED_ITEM('',(#487),#13);
#233=ADVANCED_FACE('',(#41),#211,.T.);
#234=ADVANCED_FACE('',(#42),#38,.F.);
#235=ADVANCED_FACE('',(#43),#39,.T.);
#236=ADVANCED_FACE('',(#44,#18),#20,.T.);
#237=ADVANCED_FACE('',(#45),#14,.F.);
#238=ADVANCED_FACE('',(#46),#40,.F.);
#239=ADVANCED_FACE('',(#47),#15,.F.);
#240=ADVANCED_FACE('',(#48,#19),#21,.F.);
#241=ADVANCED_FACE('',(#49),#212,.F.);
#242=ADVANCED_FACE('',(#50),#16,.T.);
#243=ADVANCED_FACE('',(#51),#213,.T.);
#244=ADVANCED_FACE('',(#52),#214,.T.);
#245=ADVANCED_FACE('',(#53),#215,.F.);
#246=ADVANCED_FACE('',(#54),#17,.F.);
#247=ADVANCED_FACE('',(#55),#22,.T.);
#248=ADVANCED_FACE('',(#56),#23,.F.);
#249=CLOSED_SHELL('',(#233,#234,#235,#236,#237,#238,#239,#240,#241,#242,
#243,#244,#245,#246,#247,#248));
#250=DERIVED_UNIT_ELEMENT(#253,1.);
#251=DERIVED_UNIT_ELEMENT(#473,-3.);
#252=DIMENSIONAL_EXPONENTS(0.,1.,0.,0.,0.,0.,0.);
#253=(
CONVERSION_BASED_UNIT('gram',#255)
MASS_UNIT()
NAMED_UNIT(#252)
);
#254=(
MASS_UNIT()
NAMED_UNIT(*)
SI_UNIT(.KILO.,.GRAM.)
);
#255=MASS_MEASURE_WITH_UNIT(MASS_MEASURE(0.001),#254);
#256=DERIVED_UNIT((#250,#251));
#257=MEASURE_REPRESENTATION_ITEM('density measure',
POSITIVE_RATIO_MEASURE(8.),#256);
#258=PROPERTY_DEFINITION_REPRESENTATION(#263,#260);
#259=PROPERTY_DEFINITION_REPRESENTATION(#264,#261);
#260=REPRESENTATION('material name',(#262),#470);
#261=REPRESENTATION('density',(#257),#470);
#262=DESCRIPTIVE_REPRESENTATION_ITEM('Edelstahl','Edelstahl');
#263=PROPERTY_DEFINITION('material property','material name',#480);
#264=PROPERTY_DEFINITION('material property','density of part',#480);
#265=DATE_TIME_ROLE('creation_date');
#266=APPLIED_DATE_AND_TIME_ASSIGNMENT(#267,#265,(#480));
#267=DATE_AND_TIME(#268,#269);
#268=CALENDAR_DATE(2023,8,9);
#269=LOCAL_TIME(0,0,0.,#270);
#270=COORDINATED_UNIVERSAL_TIME_OFFSET(0,0,.BEHIND.);
#271=AXIS2_PLACEMENT_3D('',#401,#312,#313);
#272=AXIS2_PLACEMENT_3D('',#402,#314,#315);
#273=AXIS2_PLACEMENT_3D('',#405,#316,#317);
#274=AXIS2_PLACEMENT_3D('',#406,#318,#319);
#275=AXIS2_PLACEMENT_3D('',#408,#320,#321);
#276=AXIS2_PLACEMENT_3D('',#409,#322,#323);
#277=AXIS2_PLACEMENT_3D('',#410,#324,#325);
#278=AXIS2_PLACEMENT_3D('',#412,#326,#327);
#279=AXIS2_PLACEMENT_3D('',#414,#329,#330);
#280=AXIS2_PLACEMENT_3D('',#416,#331,#332);
#281=AXIS2_PLACEMENT_3D('',#420,#334,#335);
#282=AXIS2_PLACEMENT_3D('',#421,#336,#337);
#283=AXIS2_PLACEMENT_3D('',#422,#338,#339);
#284=AXIS2_PLACEMENT_3D('',#424,#340,#341);
#285=AXIS2_PLACEMENT_3D('',#426,#342,#343);
#286=AXIS2_PLACEMENT_3D('',#427,#344,#345);
#287=AXIS2_PLACEMENT_3D('',#430,#346,#347);
#288=AXIS2_PLACEMENT_3D('',#432,#349,#350);
#289=AXIS2_PLACEMENT_3D('',#433,#351,#352);
#290=AXIS2_PLACEMENT_3D('',#436,#353,#354);
#291=AXIS2_PLACEMENT_3D('',#437,#355,#356);
#292=AXIS2_PLACEMENT_3D('',#439,#358,#359);
#293=AXIS2_PLACEMENT_3D('',#442,#361,#362);
#294=AXIS2_PLACEMENT_3D('',#443,#363,#364);
#295=AXIS2_PLACEMENT_3D('',#445,#365,#366);
#296=AXIS2_PLACEMENT_3D('',#446,#367,#368);
#297=AXIS2_PLACEMENT_3D('',#448,#369,#370);
#298=AXIS2_PLACEMENT_3D('',#449,#371,#372);
#299=AXIS2_PLACEMENT_3D('',#450,#373,#374);
#300=AXIS2_PLACEMENT_3D('',#452,#375,#376);
#301=AXIS2_PLACEMENT_3D('',#454,#378,#379);
#302=AXIS2_PLACEMENT_3D('',#455,#380,#381);
#303=AXIS2_PLACEMENT_3D('',#456,#382,#383);
#304=AXIS2_PLACEMENT_3D('',#458,#384,#385);
#305=AXIS2_PLACEMENT_3D('',#459,#386,#387);
#306=AXIS2_PLACEMENT_3D('',#460,#388,#389);
#307=AXIS2_PLACEMENT_3D('',#462,#390,#391);
#308=AXIS2_PLACEMENT_3D('',#463,#392,#393);
#309=AXIS2_PLACEMENT_3D('',#464,#394,#395);
#310=AXIS2_PLACEMENT_3D('',#466,#397,#398);
#311=AXIS2_PLACEMENT_3D('',#467,#399,#400);
#312=DIRECTION('axis',(0.,0.,1.));
#313=DIRECTION('refdir',(1.,0.,0.));
#314=DIRECTION('center_axis',(-1.,0.,0.));
#315=DIRECTION('ref_axis',(0.,0.877582561890372,-0.479425538604204));
#316=DIRECTION('center_axis',(-1.,0.,0.));
#317=DIRECTION('ref_axis',(0.,1.,0.));
#318=DIRECTION('center_axis',(-1.,0.,0.));
#319=DIRECTION('ref_axis',(0.,1.,0.));
#320=DIRECTION('center_axis',(0.,0.479425538604204,0.877582561890372));
#321=DIRECTION('ref_axis',(0.,-0.877582561890372,0.479425538604204));
#322=DIRECTION('center_axis',(-1.,0.,0.));
#323=DIRECTION('ref_axis',(0.,1.,0.));
#324=DIRECTION('center_axis',(-1.,0.,0.));
#325=DIRECTION('ref_axis',(0.,0.479425538604204,0.877582561890372));
#326=DIRECTION('center_axis',(-1.,0.,0.));
#327=DIRECTION('ref_axis',(0.,1.,0.));
#328=DIRECTION('',(-1.,0.,0.));
#329=DIRECTION('center_axis',(-1.,0.,0.));
#330=DIRECTION('ref_axis',(0.,0.877582561890372,-0.479425538604204));
#331=DIRECTION('center_axis',(-1.,0.,0.));
#332=DIRECTION('ref_axis',(0.,1.,0.));
#333=DIRECTION('',(1.,0.,0.));
#334=DIRECTION('center_axis',(-1.,0.,0.));
#335=DIRECTION('ref_axis',(0.,1.,0.));
#336=DIRECTION('center_axis',(-1.,0.,0.));
#337=DIRECTION('ref_axis',(0.,1.,0.));
#338=DIRECTION('center_axis',(-1.,0.,0.));
#339=DIRECTION('ref_axis',(0.,1.,0.));
#340=DIRECTION('center_axis',(-1.,0.,0.));
#341=DIRECTION('ref_axis',(0.,1.,0.));
#342=DIRECTION('center_axis',(-1.,0.,0.));
#343=DIRECTION('ref_axis',(0.,1.,0.));
#344=DIRECTION('center_axis',(-1.,4.4408920985E-15,1.33226762955E-14));
#345=DIRECTION('ref_axis',(-3.55124093947419E-15,-0.997816358853068,0.0660493300890045));
#346=DIRECTION('center_axis',(-1.,2.71614791877E-15,4.97187541566E-15));
#347=DIRECTION('ref_axis',(2.71614791877E-15,1.,0.));
#348=DIRECTION('',(-0.707106781186862,0.70556271372356,-0.0467039291987335));
#349=DIRECTION('center_axis',(-1.,2.71614791877E-15,4.97187541566E-15));
#350=DIRECTION('ref_axis',(2.71614791877E-15,1.,0.));
#351=DIRECTION('center_axis',(-1.,0.,0.));
#352=DIRECTION('ref_axis',(0.,0.877582561890372,-0.479425538604204));
#353=DIRECTION('center_axis',(-1.,0.,0.));
#354=DIRECTION('ref_axis',(0.,1.,0.));
#355=DIRECTION('center_axis',(-1.,0.,0.));
#356=DIRECTION('ref_axis',(0.,1.,0.));
#357=DIRECTION('',(-1.,0.,0.));
#358=DIRECTION('center_axis',(1.,2.22044604925E-15,-1.11022302463E-14));
#359=DIRECTION('ref_axis',(6.98176000615626E-15,-0.892885413776244,0.450283952485123));
#360=DIRECTION('',(0.70710678118686,0.631365330903457,-0.318398836261577));
#361=DIRECTION('center_axis',(-1.,-1.35807395938E-15,-2.48593770783E-15));
#362=DIRECTION('ref_axis',(-1.35807395938E-15,1.,0.));
#363=DIRECTION('center_axis',(-1.,0.,0.));
#364=DIRECTION('ref_axis',(0.,1.,0.));
#365=DIRECTION('center_axis',(-1.,0.,0.));
#366=DIRECTION('ref_axis',(0.,1.,0.));
#367=DIRECTION('center_axis',(-1.,0.,0.));
#368=DIRECTION('ref_axis',(0.,0.877582561890373,-0.479425538604204));
#369=DIRECTION('center_axis',(-1.,0.,0.));
#370=DIRECTION('ref_axis',(0.,1.,0.));
#371=DIRECTION('center_axis',(0.,-0.479425538604204,-0.877582561890372));
#372=DIRECTION('ref_axis',(0.,-0.877582561890372,0.479425538604204));
#373=DIRECTION('center_axis',(-1.,0.,0.));
#374=DIRECTION('ref_axis',(0.,0.877582561890372,-0.479425538604204));
#375=DIRECTION('center_axis',(-1.,0.,0.));
#376=DIRECTION('ref_axis',(0.,1.,0.));
#377=DIRECTION('',(0.669130606359065,0.652170939797862,-0.356282608215337));
#378=DIRECTION('center_axis',(-1.,0.,0.));
#379=DIRECTION('ref_axis',(0.,0.877582561890372,-0.479425538604204));
#380=DIRECTION('center_axis',(0.,0.479425538604204,0.877582561890372));
#381=DIRECTION('ref_axis',(0.,-0.877582561890372,0.479425538604204));
#382=DIRECTION('center_axis',(-1.,0.,0.));
#383=DIRECTION('ref_axis',(0.,0.479425538604204,0.877582561890372));
#384=DIRECTION('center_axis',(0.,-0.877582561890372,0.479425538604204));
#385=DIRECTION('ref_axis',(0.,-0.479425538604204,-0.877582561890372));
#386=DIRECTION('center_axis',(-1.,0.,0.));
#387=DIRECTION('ref_axis',(0.,1.,0.));
#388=DIRECTION('center_axis',(-1.,0.,0.));
#389=DIRECTION('ref_axis',(0.,0.479425538604204,0.877582561890372));
#390=DIRECTION('center_axis',(-1.,0.,0.));
#391=DIRECTION('ref_axis',(0.,1.,0.));
#392=DIRECTION('center_axis',(0.,0.877582561890372,-0.479425538604204));
#393=DIRECTION('ref_axis',(0.,-0.479425538604204,-0.877582561890372));
#394=DIRECTION('center_axis',(-1.,0.,0.));
#395=DIRECTION('ref_axis',(0.,0.877582561890372,-0.479425538604204));
#396=DIRECTION('',(-0.669130606359065,-0.652170939797862,0.356282608215337));
#397=DIRECTION('center_axis',(-1.,0.,0.));
#398=DIRECTION('ref_axis',(0.,1.,0.));
#399=DIRECTION('center_axis',(-1.,0.,0.));
#400=DIRECTION('ref_axis',(0.,1.,0.));
#401=CARTESIAN_POINT('',(0.,0.,0.));
#402=CARTESIAN_POINT('Origin',(-16.6286681843,0.,0.));
#403=CARTESIAN_POINT('',(-16.6286681843,-5.32162347851,-9.74116643698));
#404=CARTESIAN_POINT('',(-16.6286681843,-9.74116643698313,5.32162347850666));
#405=CARTESIAN_POINT('Origin',(-16.6286681843,0.,0.));
#406=CARTESIAN_POINT('Origin',(-16.6286681843,0.,0.));
#407=CARTESIAN_POINT('',(-18.1149578352,-10.3218968572441,5.63887795302326));
#408=CARTESIAN_POINT('Origin',(-16.6286681843,-11.4963315607639,6.28047455571507));
#409=CARTESIAN_POINT('Origin',(-18.1149578352,0.,0.));
#410=CARTESIAN_POINT('Origin',(-0.722743989400012,0.,0.));
#411=CARTESIAN_POINT('',(-2.47274398869999,-5.32162347851,-9.74116643698));
#412=CARTESIAN_POINT('Origin',(-2.47274398869999,0.,0.));
#413=CARTESIAN_POINT('',(-0.722743989400012,-5.32162347850666,-9.74116643698313));
#414=CARTESIAN_POINT('Origin',(-2.29774398869999,0.,0.));
#415=CARTESIAN_POINT('',(-17.0531274363,-11.0575402798,6.04076178641));
#416=CARTESIAN_POINT('Origin',(-17.0531274363,0.,0.));
#417=CARTESIAN_POINT('',(-2.47274398869999,-11.0575402798,6.04076178641));
#418=CARTESIAN_POINT('',(-2.29774398869999,-11.0575402798187,6.04076178641297));
#419=CARTESIAN_POINT('',(-2.47274398869999,-6.04076178641297,-11.0575402798187));
#420=CARTESIAN_POINT('Origin',(-2.47274398869999,0.,0.));
#421=CARTESIAN_POINT('Origin',(-2.47274398869999,0.,0.));
#422=CARTESIAN_POINT('Origin',(-23.9727439887,11.65,0.));
#423=CARTESIAN_POINT('',(-23.9727439887,-11.0575402798187,6.04076178641297));
#424=CARTESIAN_POINT('Origin',(-23.9727439887,0.,0.));
#425=CARTESIAN_POINT('',(-23.9727439887055,12.0236871241742,-0.795894427572152));
#426=CARTESIAN_POINT('Origin',(-23.9727439887,0.,-1.66533453694E-15));
#427=CARTESIAN_POINT('Origin',(-12.9227439887009,-4.6407322429296E-14,-1.44551037806488E-13));
#428=CARTESIAN_POINT('',(-23.5727439887051,11.624560580633,-0.769474695536558));
#429=CARTESIAN_POINT('',(-23.5727439887001,-10.2238368460228,5.58530752473897));
#430=CARTESIAN_POINT('Origin',(-23.5727439887,-1.33226762955E-15,-5.3290705182E-15));
#431=CARTESIAN_POINT('',(-12.9227439887009,0.997816358853021,-0.0660493300891491));
#432=CARTESIAN_POINT('Origin',(-23.5727439887,-1.33226762955E-15,-5.3290705182E-15));
#433=CARTESIAN_POINT('Origin',(-2.29774398869999,0.,0.));
#434=CARTESIAN_POINT('',(-23.0227439886949,10.4021150704885,-5.2458080464493));
#435=CARTESIAN_POINT('',(-23.0227439887,-10.2238368460228,5.58530752473897));
#436=CARTESIAN_POINT('Origin',(-23.0227439887,0.,0.));
#437=CARTESIAN_POINT('Origin',(-23.0227439887,0.,0.));
#438=CARTESIAN_POINT('',(-2.29774398869999,-10.2238368460228,5.58530752473897));
#439=CARTESIAN_POINT('Origin',(-33.6727439886991,-2.3203661214648E-14,1.1912693054269E-13));
#440=CARTESIAN_POINT('',(-22.6227439886946,10.759269235999,-5.42592162744335));
#441=CARTESIAN_POINT('',(-33.6727439886991,0.892885413776221,-0.450283952485004));
#442=CARTESIAN_POINT('Origin',(-22.6227439887,-1.33226762955E-15,-2.08259278978E-28));
#443=CARTESIAN_POINT('Origin',(-22.6227439887,11.65,0.));
#444=CARTESIAN_POINT('',(-22.6227439887,-11.0575402798187,6.04076178641296));
#445=CARTESIAN_POINT('Origin',(-22.6227439887,0.,0.));
#446=CARTESIAN_POINT('Origin',(-21.0227439887,0.,0.));
#447=CARTESIAN_POINT('',(-19.8337122679,-11.9970880426696,6.55403906858559));
#448=CARTESIAN_POINT('Origin',(-19.8337122679,0.,0.));
#449=CARTESIAN_POINT('Origin',(-21.0227439887,-11.0575402798187,6.04076178641296));
#450=CARTESIAN_POINT('Origin',(-17.0531274363,0.,0.));
#451=CARTESIAN_POINT('',(-18.8304667535104,-12.7898314675614,6.98711677541129));
#452=CARTESIAN_POINT('Origin',(-18.8304667535,0.,0.));
#453=CARTESIAN_POINT('',(-17.0531274363,-11.0575402798187,6.04076178641297));
#454=CARTESIAN_POINT('Origin',(-21.0227439887,0.,0.));
#455=CARTESIAN_POINT('Origin',(-21.0227439887,-11.0575402798187,6.04076178641297));
#456=CARTESIAN_POINT('Origin',(-2.47274398869999,0.,0.));
#457=CARTESIAN_POINT('',(0.0272560113000075,-4.84219793990246,-8.86358387509276));
#458=CARTESIAN_POINT('Origin',(-2.47274398869999,-4.84219793990246,-8.86358387509276));
#459=CARTESIAN_POINT('Origin',(0.0272560113000075,0.,0.));
#460=CARTESIAN_POINT('Origin',(-2.47274398869999,0.,0.));
#461=CARTESIAN_POINT('',(-1.4727439887,-4.8421979399,-8.86358387509));
#462=CARTESIAN_POINT('Origin',(-1.4727439887,0.,0.));
#463=CARTESIAN_POINT('Origin',(-2.47274398869999,-4.84219793990246,-8.86358387509276));
#464=CARTESIAN_POINT('Origin',(-18.1149578352,0.,0.));
#465=CARTESIAN_POINT('',(-18.1149578352,-10.3218968572441,5.63887795302326));
#466=CARTESIAN_POINT('Origin',(-1.4727439887,0.,10.1));
#467=CARTESIAN_POINT('Origin',(0.0272560113000075,0.,10.1));
#468=UNCERTAINTY_MEASURE_WITH_UNIT(LENGTH_MEASURE(0.01),#472,
'DISTANCE_ACCURACY_VALUE',
'Maximum model space distance between geometric entities at asserted c
onnectivities');
#469=UNCERTAINTY_MEASURE_WITH_UNIT(LENGTH_MEASURE(0.01),#472,
'DISTANCE_ACCURACY_VALUE',
'Maximum model space distance between geometric entities at asserted c
onnectivities');
#470=(
GEOMETRIC_REPRESENTATION_CONTEXT(3)
GLOBAL_UNCERTAINTY_ASSIGNED_CONTEXT((#468))
GLOBAL_UNIT_ASSIGNED_CONTEXT((#472,#474,#475))
REPRESENTATION_CONTEXT('','3D')
);
#471=(
GEOMETRIC_REPRESENTATION_CONTEXT(3)
GLOBAL_UNCERTAINTY_ASSIGNED_CONTEXT((#469))
GLOBAL_UNIT_ASSIGNED_CONTEXT((#472,#474,#475))
REPRESENTATION_CONTEXT('','3D')
);
#472=(
LENGTH_UNIT()
NAMED_UNIT(*)
SI_UNIT(.MILLI.,.METRE.)
);
#473=(
LENGTH_UNIT()
NAMED_UNIT(*)
SI_UNIT(.CENTI.,.METRE.)
);
#474=(
NAMED_UNIT(*)
PLANE_ANGLE_UNIT()
SI_UNIT($,.RADIAN.)
);
#475=(
NAMED_UNIT(*)
SI_UNIT($,.STERADIAN.)
SOLID_ANGLE_UNIT()
);
#476=SHAPE_DEFINITION_REPRESENTATION(#477,#478);
#477=PRODUCT_DEFINITION_SHAPE('',$,#480);
#478=SHAPE_REPRESENTATION('',(#271),#470);
#479=PRODUCT_DEFINITION_CONTEXT('part definition',#484,'design');
#480=PRODUCT_DEFINITION('tmpD2E6.tmp','tmpD2E6.tmp',#481,#479);
#481=PRODUCT_DEFINITION_FORMATION('',$,#486);
#482=PRODUCT_RELATED_PRODUCT_CATEGORY('tmpD2E6.tmp','tmpD2E6.tmp',(#486));
#483=APPLICATION_PROTOCOL_DEFINITION('international standard',
'automotive_design',2009,#484);
#484=APPLICATION_CONTEXT(
'Core Data for Automotive Mechanical Design Process');
#485=PRODUCT_CONTEXT('part definition',#484,'mechanical');
#486=PRODUCT('tmpD2E6.tmp','tmpD2E6.tmp',$,(#485));
#487=PRESENTATION_STYLE_ASSIGNMENT((#488));
#488=SURFACE_STYLE_USAGE(.BOTH.,#491);
#489=SURFACE_STYLE_RENDERING_WITH_PROPERTIES($,#495,(#490));
#490=SURFACE_STYLE_TRANSPARENT(0.);
#491=SURFACE_SIDE_STYLE('',(#492,#489));
#492=SURFACE_STYLE_FILL_AREA(#493);
#493=FILL_AREA_STYLE('',(#494));
#494=FILL_AREA_STYLE_COLOUR('',#495);
#495=COLOUR_RGB('',0.745098039215686,0.737254901960784,0.729411764705882);
ENDSEC;
END-ISO-10303-21;
