ISO-10303-21;
HEADER;
/****************************************************************
 * Generated by software with PDE/Lib inside                    *
 * PDElib Version v51a, created Thu 01/14/2010                  *
 * ITI Transcendata (http://www.transcendata.com/)              *
 ****************************************************************/
FILE_DESCRIPTION((''),'2;1');
FILE_NAME('P:\\2. PROJECTEN\\2017\\PRO.1703.01\\3. ONTWERP\\PRO.1703.01 - 0\\2. PARTS\\200 PIPING\\Bocht 90gr -1.0inch.stp','2017-03-06T10:43:32',('Engineer'),(''),'Autodesk Inventor 2011','Autodesk Inventor 2011','');
FILE_SCHEMA(('AUTOMOTIVE_DESIGN { 1 0 10303 214 1 1 1 1 }'));
ENDSEC;
DATA;
#5=APPLICATION_CONTEXT('automotive design');
#6=APPLICATION_PROTOCOL_DEFINITION('International Standard','automotive_design',2001,#5);
#7=PRODUCT_CONTEXT('',#5,'mechanical');
#8=PRODUCT('Bocht 90gr','Bocht 90gr',$,(#7));
#9=PRODUCT_RELATED_PRODUCT_CATEGORY('part',$,(#8));
#10=PRODUCT_DEFINITION_FORMATION('',$,#8);
#11=PRODUCT_DEFINITION_CONTEXT('part definition',#5,'design');
#12=PRODUCT_DEFINITION('',$,#10,#11);
#18=(NAMED_UNIT(*)PLANE_ANGLE_UNIT()SI_UNIT($,.RADIAN.));
#19=DIMENSIONAL_EXPONENTS(0.0,0.0,0.0,0.0,0.0,0.0,0.0);
#20=PLANE_ANGLE_MEASURE_WITH_UNIT(PLANE_ANGLE_MEASURE(0.017453292500000),#18);
#24=(CONVERSION_BASED_UNIT('DEGREE',#20)NAMED_UNIT(#19)PLANE_ANGLE_UNIT());
#28=(NAMED_UNIT(*)SI_UNIT($,.STERADIAN.)SOLID_ANGLE_UNIT());
#32=(LENGTH_UNIT()NAMED_UNIT(*)SI_UNIT(.MILLI.,.METRE.));
#34=UNCERTAINTY_MEASURE_WITH_UNIT(LENGTH_MEASURE(0.010000000000000),#32,'DISTANCE_ACCURACY_VALUE','');
#36=(GEOMETRIC_REPRESENTATION_CONTEXT(3)GLOBAL_UNCERTAINTY_ASSIGNED_CONTEXT((#34))GLOBAL_UNIT_ASSIGNED_CONTEXT((#24,#28,#32))REPRESENTATION_CONTEXT('None','None'));
#37=AXIS2_PLACEMENT_3D('',#38,#39,#40);
#38=CARTESIAN_POINT('',(0.0,0.0,0.0));
#39=DIRECTION('',(0.0,0.0,1.0));
#40=DIRECTION('',(1.0,0.0,0.0));
#41=SHAPE_REPRESENTATION('',(#37),#36);
#42=PRODUCT_DEFINITION_SHAPE('','',#12);
#43=SHAPE_DEFINITION_REPRESENTATION(#42,#41);
#49=(NAMED_UNIT(*)PLANE_ANGLE_UNIT()SI_UNIT($,.RADIAN.));
#50=DIMENSIONAL_EXPONENTS(0.0,0.0,0.0,0.0,0.0,0.0,0.0);
#51=PLANE_ANGLE_MEASURE_WITH_UNIT(PLANE_ANGLE_MEASURE(0.017453292500000),#49);
#55=(CONVERSION_BASED_UNIT('DEGREE',#51)NAMED_UNIT(#50)PLANE_ANGLE_UNIT());
#59=(NAMED_UNIT(*)SI_UNIT($,.STERADIAN.)SOLID_ANGLE_UNIT());
#63=(LENGTH_UNIT()NAMED_UNIT(*)SI_UNIT(.MILLI.,.METRE.));
#65=UNCERTAINTY_MEASURE_WITH_UNIT(LENGTH_MEASURE(0.000001000000000),#63,'DISTANCE_ACCURACY_VALUE','');
#67=(GEOMETRIC_REPRESENTATION_CONTEXT(3)GLOBAL_UNCERTAINTY_ASSIGNED_CONTEXT((#65))GLOBAL_UNIT_ASSIGNED_CONTEXT((#55,#59,#63))REPRESENTATION_CONTEXT('','3D'));
#68=CARTESIAN_POINT('',(-38.100000000000065,0.0,65.000000000000057));
#69=DIRECTION('',(-1.0,0.0,0.0));
#70=DIRECTION('',(0.0,0.0,-1.0));
#71=AXIS2_PLACEMENT_3D('',#68,#69,#70);
#72=CYLINDRICAL_SURFACE('',#71,11.050000000000001);
#73=CARTESIAN_POINT('',(-65.000000000000057,1.353235E-015,76.050000000000054));
#74=VERTEX_POINT('',#73);
#75=CARTESIAN_POINT('',(-65.000000000000057,0.0,65.000000000000057));
#76=DIRECTION('',(1.0,0.0,0.0));
#77=DIRECTION('',(0.0,0.0,-1.0));
#78=AXIS2_PLACEMENT_3D('',#75,#76,#77);
#79=CIRCLE('',#78,11.050000000000001);
#80=EDGE_CURVE('',#74,#74,#79,.T.);
#81=ORIENTED_EDGE('',*,*,#80,.F.);
#82=EDGE_LOOP('',(#81));
#83=FACE_OUTER_BOUND('',#82,.T.);
#84=CARTESIAN_POINT('',(-38.100000000000065,1.353235E-015,76.050000000000054));
#85=VERTEX_POINT('',#84);
#86=CARTESIAN_POINT('',(-38.100000000000065,0.0,65.000000000000057));
#87=DIRECTION('',(1.0,0.0,0.0));
#88=DIRECTION('',(0.0,0.0,-1.0));
#89=AXIS2_PLACEMENT_3D('',#86,#87,#88);
#90=CIRCLE('',#89,11.050000000000001);
#91=EDGE_CURVE('',#85,#85,#90,.T.);
#92=ORIENTED_EDGE('',*,*,#91,.T.);
#93=EDGE_LOOP('',(#92));
#94=FACE_BOUND('',#93,.T.);
#95=ADVANCED_FACE('',(#83,#94),#72,.F.);
#96=CARTESIAN_POINT('',(-38.100000000000058,0.0,26.899999999999995));
#97=DIRECTION('',(0.0,-1.0,0.0));
#98=DIRECTION('',(0.0,0.0,-1.0));
#99=AXIS2_PLACEMENT_3D('',#96,#97,#98);
#100=TOROIDAL_SURFACE('',#99,38.100000000000058,11.050000000000001);
#101=ORIENTED_EDGE('',*,*,#91,.F.);
#102=EDGE_LOOP('',(#101));
#103=FACE_OUTER_BOUND('',#102,.T.);
#104=CARTESIAN_POINT('',(11.050000000000001,1.353235E-015,26.900000000000006));
#105=VERTEX_POINT('',#104);
#106=CARTESIAN_POINT('',(0.0,0.0,26.900000000000006));
#107=DIRECTION('',(0.0,0.0,-1.0));
#108=DIRECTION('',(-1.0,0.0,0.0));
#109=AXIS2_PLACEMENT_3D('',#106,#107,#108);
#110=CIRCLE('',#109,11.050000000000001);
#111=EDGE_CURVE('',#105,#105,#110,.T.);
#112=ORIENTED_EDGE('',*,*,#111,.T.);
#113=EDGE_LOOP('',(#112));
#114=FACE_BOUND('',#113,.T.);
#115=ADVANCED_FACE('',(#103,#114),#100,.F.);
#116=CARTESIAN_POINT('',(0.0,0.0,0.0));
#117=DIRECTION('',(0.0,0.0,1.0));
#118=DIRECTION('',(-1.0,0.0,0.0));
#119=AXIS2_PLACEMENT_3D('',#116,#117,#118);
#120=CYLINDRICAL_SURFACE('',#119,11.050000000000001);
#121=ORIENTED_EDGE('',*,*,#111,.F.);
#122=EDGE_LOOP('',(#121));
#123=FACE_OUTER_BOUND('',#122,.T.);
#124=CARTESIAN_POINT('',(11.050000000000001,1.353235E-015,0.0));
#125=VERTEX_POINT('',#124);
#126=CARTESIAN_POINT('',(0.0,0.0,0.0));
#127=DIRECTION('',(0.0,0.0,1.0));
#128=DIRECTION('',(-1.0,0.0,0.0));
#129=AXIS2_PLACEMENT_3D('',#126,#127,#128);
#130=CIRCLE('',#129,11.050000000000001);
#131=EDGE_CURVE('',#125,#125,#130,.T.);
#132=ORIENTED_EDGE('',*,*,#131,.F.);
#133=EDGE_LOOP('',(#132));
#134=FACE_BOUND('',#133,.T.);
#135=ADVANCED_FACE('',(#123,#134),#120,.F.);
#136=CARTESIAN_POINT('',(-38.100000000000065,0.0,65.000000000000057));
#137=DIRECTION('',(-1.0,0.0,0.0));
#138=DIRECTION('',(0.0,0.0,-1.0));
#139=AXIS2_PLACEMENT_3D('',#136,#137,#138);
#140=CYLINDRICAL_SURFACE('',#139,12.699999999999999);
#141=CARTESIAN_POINT('',(-65.000000000000057,1.555301E-015,77.700000000000045));
#142=VERTEX_POINT('',#141);
#143=CARTESIAN_POINT('',(-65.000000000000057,0.0,65.000000000000057));
#144=DIRECTION('',(1.0,0.0,0.0));
#145=DIRECTION('',(0.0,0.0,-1.0));
#146=AXIS2_PLACEMENT_3D('',#143,#144,#145);
#147=CIRCLE('',#146,12.699999999999999);
#148=EDGE_CURVE('',#142,#142,#147,.T.);
#149=ORIENTED_EDGE('',*,*,#148,.T.);
#150=EDGE_LOOP('',(#149));
#151=FACE_OUTER_BOUND('',#150,.T.);
#152=CARTESIAN_POINT('',(-38.100000000000065,1.555301E-015,77.700000000000045));
#153=VERTEX_POINT('',#152);
#154=CARTESIAN_POINT('',(-38.100000000000065,0.0,65.000000000000057));
#155=DIRECTION('',(1.0,0.0,0.0));
#156=DIRECTION('',(0.0,0.0,-1.0));
#157=AXIS2_PLACEMENT_3D('',#154,#155,#156);
#158=CIRCLE('',#157,12.699999999999999);
#159=EDGE_CURVE('',#153,#153,#158,.T.);
#160=ORIENTED_EDGE('',*,*,#159,.F.);
#161=EDGE_LOOP('',(#160));
#162=FACE_BOUND('',#161,.T.);
#163=ADVANCED_FACE('',(#151,#162),#140,.T.);
#164=CARTESIAN_POINT('',(-38.100000000000058,0.0,26.899999999999995));
#165=DIRECTION('',(0.0,-1.0,0.0));
#166=DIRECTION('',(0.0,0.0,-1.0));
#167=AXIS2_PLACEMENT_3D('',#164,#165,#166);
#168=TOROIDAL_SURFACE('',#167,38.100000000000058,12.699999999999999);
#169=ORIENTED_EDGE('',*,*,#159,.T.);
#170=EDGE_LOOP('',(#169));
#171=FACE_OUTER_BOUND('',#170,.T.);
#172=CARTESIAN_POINT('',(12.699999999999999,1.555301E-015,26.900000000000006));
#173=VERTEX_POINT('',#172);
#174=CARTESIAN_POINT('',(0.0,0.0,26.900000000000006));
#175=DIRECTION('',(0.0,0.0,-1.0));
#176=DIRECTION('',(-1.0,0.0,0.0));
#177=AXIS2_PLACEMENT_3D('',#174,#175,#176);
#178=CIRCLE('',#177,12.699999999999999);
#179=EDGE_CURVE('',#173,#173,#178,.T.);
#180=ORIENTED_EDGE('',*,*,#179,.F.);
#181=EDGE_LOOP('',(#180));
#182=FACE_BOUND('',#181,.T.);
#183=ADVANCED_FACE('',(#171,#182),#168,.T.);
#184=CARTESIAN_POINT('',(0.0,0.0,0.0));
#185=DIRECTION('',(0.0,0.0,1.0));
#186=DIRECTION('',(-1.0,0.0,0.0));
#187=AXIS2_PLACEMENT_3D('',#184,#185,#186);
#188=CYLINDRICAL_SURFACE('',#187,12.699999999999999);
#189=ORIENTED_EDGE('',*,*,#179,.T.);
#190=EDGE_LOOP('',(#189));
#191=FACE_OUTER_BOUND('',#190,.T.);
#192=CARTESIAN_POINT('',(12.699999999999999,1.555301E-015,0.0));
#193=VERTEX_POINT('',#192);
#194=CARTESIAN_POINT('',(0.0,0.0,0.0));
#195=DIRECTION('',(0.0,0.0,-1.0));
#196=DIRECTION('',(-1.0,0.0,0.0));
#197=AXIS2_PLACEMENT_3D('',#194,#195,#196);
#198=CIRCLE('',#197,12.699999999999999);
#199=EDGE_CURVE('',#193,#193,#198,.T.);
#200=ORIENTED_EDGE('',*,*,#199,.F.);
#201=EDGE_LOOP('',(#200));
#202=FACE_BOUND('',#201,.T.);
#203=ADVANCED_FACE('',(#191,#202),#188,.T.);
#204=CARTESIAN_POINT('',(-65.000000000000057,0.0,65.0));
#205=DIRECTION('',(1.0,0.0,0.0));
#206=DIRECTION('',(0.0,0.0,-1.0));
#207=AXIS2_PLACEMENT_3D('',#204,#205,#206);
#208=PLANE('',#207);
#209=ORIENTED_EDGE('',*,*,#148,.F.);
#210=EDGE_LOOP('',(#209));
#211=FACE_OUTER_BOUND('',#210,.T.);
#212=ORIENTED_EDGE('',*,*,#80,.T.);
#213=EDGE_LOOP('',(#212));
#214=FACE_BOUND('',#213,.T.);
#215=ADVANCED_FACE('',(#211,#214),#208,.F.);
#216=CARTESIAN_POINT('',(0.0,0.0,0.0));
#217=DIRECTION('',(0.0,0.0,-1.0));
#218=DIRECTION('',(-1.0,0.0,0.0));
#219=AXIS2_PLACEMENT_3D('',#216,#217,#218);
#220=PLANE('',#219);
#221=ORIENTED_EDGE('',*,*,#199,.T.);
#222=EDGE_LOOP('',(#221));
#223=FACE_OUTER_BOUND('',#222,.T.);
#224=ORIENTED_EDGE('',*,*,#131,.T.);
#225=EDGE_LOOP('',(#224));
#226=FACE_BOUND('',#225,.T.);
#227=ADVANCED_FACE('',(#223,#226),#220,.T.);
#228=CLOSED_SHELL('',(#95,#115,#135,#163,#183,#203,#215,#227));
#229=MANIFOLD_SOLID_BREP('Solid2',#228);
#230=COLOUR_RGB('Metal-Steel',0.639216005802155,0.639216005802155,0.686275005340576);
#231=FILL_AREA_STYLE_COLOUR('Metal-Steel',#230);
#232=FILL_AREA_STYLE('Metal-Steel',(#231));
#233=SURFACE_STYLE_FILL_AREA(#232);
#234=SURFACE_SIDE_STYLE('Metal-Steel',(#233));
#235=SURFACE_STYLE_USAGE(.BOTH.,#234);
#236=PRESENTATION_STYLE_ASSIGNMENT((#235));
#237=STYLED_ITEM('',(#236),#229);
#238=MECHANICAL_DESIGN_GEOMETRIC_PRESENTATION_REPRESENTATION('',(#237),#36);
#239=ADVANCED_BREP_SHAPE_REPRESENTATION('ABSR',(#229),#36);
#240=SHAPE_REPRESENTATION_RELATIONSHIP('SRR','None',#239,#41);
#241=GROUP('Sketch1',$);
#242=APPLIED_GROUP_ASSIGNMENT(#241,(#271,#309));
#248=(NAMED_UNIT(*)PLANE_ANGLE_UNIT()SI_UNIT($,.RADIAN.));
#249=DIMENSIONAL_EXPONENTS(0.0,0.0,0.0,0.0,0.0,0.0,0.0);
#250=PLANE_ANGLE_MEASURE_WITH_UNIT(PLANE_ANGLE_MEASURE(0.017453292500000),#248);
#254=(CONVERSION_BASED_UNIT('DEGREE',#250)NAMED_UNIT(#249)PLANE_ANGLE_UNIT());
#258=(NAMED_UNIT(*)SI_UNIT($,.STERADIAN.)SOLID_ANGLE_UNIT());
#262=(LENGTH_UNIT()NAMED_UNIT(*)SI_UNIT(.MILLI.,.METRE.));
#264=UNCERTAINTY_MEASURE_WITH_UNIT(LENGTH_MEASURE(0.000001000000000),#262,'DISTANCE_ACCURACY_VALUE','');
#266=(GEOMETRIC_REPRESENTATION_CONTEXT(3)GLOBAL_UNCERTAINTY_ASSIGNED_CONTEXT((#264))GLOBAL_UNIT_ASSIGNED_CONTEXT((#254,#258,#262))REPRESENTATION_CONTEXT('','3D'));
#267=CARTESIAN_POINT('',(0.0,0.0,0.0));
#268=DIRECTION('',(0.0,0.0,1.0));
#269=DIRECTION('',(1.0,0.0,0.0));
#270=AXIS2_PLACEMENT_3D('',#267,#268,#269);
#271=CIRCLE('',#270,11.050000000000001);
#272=COLOUR_RGB('',0.0,0.0,0.501960813999176);
#273=DRAUGHTING_PRE_DEFINED_CURVE_FONT('continuous');
#274=CURVE_STYLE('',#273,POSITIVE_LENGTH_MEASURE(0.100000000000000),#272);
#275=PRESENTATION_STYLE_ASSIGNMENT((#274));
#276=STYLED_ITEM('',(#275),#271);
#277=MECHANICAL_DESIGN_GEOMETRIC_PRESENTATION_REPRESENTATION('',(#276),#266);
#278=GEOMETRIC_SET('GEOSET',(#271,#309));
#279=GEOMETRICALLY_BOUNDED_SURFACE_SHAPE_REPRESENTATION('GBSSR',(#278),#36);
#280=SHAPE_REPRESENTATION_RELATIONSHIP('SRR','None',#279,#41);
#286=(NAMED_UNIT(*)PLANE_ANGLE_UNIT()SI_UNIT($,.RADIAN.));
#287=DIMENSIONAL_EXPONENTS(0.0,0.0,0.0,0.0,0.0,0.0,0.0);
#288=PLANE_ANGLE_MEASURE_WITH_UNIT(PLANE_ANGLE_MEASURE(0.017453292500000),#286);
#292=(CONVERSION_BASED_UNIT('DEGREE',#288)NAMED_UNIT(#287)PLANE_ANGLE_UNIT());
#296=(NAMED_UNIT(*)SI_UNIT($,.STERADIAN.)SOLID_ANGLE_UNIT());
#300=(LENGTH_UNIT()NAMED_UNIT(*)SI_UNIT(.MILLI.,.METRE.));
#302=UNCERTAINTY_MEASURE_WITH_UNIT(LENGTH_MEASURE(0.000001000000000),#300,'DISTANCE_ACCURACY_VALUE','');
#304=(GEOMETRIC_REPRESENTATION_CONTEXT(3)GLOBAL_UNCERTAINTY_ASSIGNED_CONTEXT((#302))GLOBAL_UNIT_ASSIGNED_CONTEXT((#292,#296,#300))REPRESENTATION_CONTEXT('','3D'));
#305=CARTESIAN_POINT('',(0.0,0.0,0.0));
#306=DIRECTION('',(0.0,0.0,1.0));
#307=DIRECTION('',(1.0,0.0,0.0));
#308=AXIS2_PLACEMENT_3D('',#305,#306,#307);
#309=CIRCLE('',#308,12.699999999999999);
#310=STYLED_ITEM('',(#275),#309);
#311=MECHANICAL_DESIGN_GEOMETRIC_PRESENTATION_REPRESENTATION('',(#310),#304);
ENDSEC;
END-ISO-10303-21;
