ISO-10303-21;
HEADER;
/****************************************************************
 * Generated by software with PDE/Lib inside                    *
 * PDElib Version v51a, created Thu 12/14/2006                  *
 * International Technegroup Inc. (www.iti-oh.com)              *
 ****************************************************************/
FILE_DESCRIPTION((''),'2;1');
FILE_NAME('T:\\Arbeitspl\S\dtze\\Aushilfe\\KPeters\\3D\\Steps 08_10\\7030\\70301400X.stp','2010-09-07T08:29:52',('thilbrands'),(''),'Autodesk Inventor 2008','Autodesk Inventor 2008','');
FILE_SCHEMA(('AUTOMOTIVE_DESIGN { 1 0 10303 214 1 1 1 1 }'));
ENDSEC;
DATA;
#5=APPLICATION_CONTEXT('automotive design');
#6=APPLICATION_PROTOCOL_DEFINITION('International Standard','automotive_design',2001,#5);
#7=PRODUCT_CONTEXT('',#5,'mechanical');
#8=PRODUCT('703000251','703000251',$,(#7));
#9=PRODUCT_RELATED_PRODUCT_CATEGORY('part',$,(#8));
#10=PRODUCT_DEFINITION_FORMATION('',$,#8);
#11=PRODUCT_DEFINITION_CONTEXT('part definition',#5,'design');
#12=PRODUCT_DEFINITION('',$,#10,#11);
#18=(NAMED_UNIT(*)PLANE_ANGLE_UNIT()SI_UNIT($,.RADIAN.));
#19=DIMENSIONAL_EXPONENTS(0.0,0.0,0.0,0.0,0.0,0.0,0.0);
#20=PLANE_ANGLE_MEASURE_WITH_UNIT(PLANE_ANGLE_MEASURE(0.017453292500000),#18);
#24=(CONVERSION_BASED_UNIT('DEGREE',#20)NAMED_UNIT(#19)PLANE_ANGLE_UNIT());
#28=(NAMED_UNIT(*)SI_UNIT($,.STERADIAN.)SOLID_ANGLE_UNIT());
#32=(LENGTH_UNIT()NAMED_UNIT(*)SI_UNIT(.MILLI.,.METRE.));
#34=UNCERTAINTY_MEASURE_WITH_UNIT(LENGTH_MEASURE(0.010000000000000),#32,'DISTANCE_ACCURACY_VALUE','');
#36=(GEOMETRIC_REPRESENTATION_CONTEXT(3)GLOBAL_UNCERTAINTY_ASSIGNED_CONTEXT((#34))GLOBAL_UNIT_ASSIGNED_CONTEXT((#24,#28,#32))REPRESENTATION_CONTEXT('None','None'));
#37=AXIS2_PLACEMENT_3D('',#38,#39,#40);
#38=CARTESIAN_POINT('',(0.0,0.0,0.0));
#39=DIRECTION('',(0.0,0.0,1.0));
#40=DIRECTION('',(1.0,0.0,0.0));
#41=SHAPE_REPRESENTATION('',(#37),#36);
#42=PRODUCT_DEFINITION_SHAPE('','',#12);
#43=SHAPE_DEFINITION_REPRESENTATION(#42,#41);
#49=(NAMED_UNIT(*)PLANE_ANGLE_UNIT()SI_UNIT($,.RADIAN.));
#50=DIMENSIONAL_EXPONENTS(0.0,0.0,0.0,0.0,0.0,0.0,0.0);
#51=PLANE_ANGLE_MEASURE_WITH_UNIT(PLANE_ANGLE_MEASURE(0.017453292500000),#49);
#55=(CONVERSION_BASED_UNIT('DEGREE',#51)NAMED_UNIT(#50)PLANE_ANGLE_UNIT());
#59=(NAMED_UNIT(*)SI_UNIT($,.STERADIAN.)SOLID_ANGLE_UNIT());
#63=(LENGTH_UNIT()NAMED_UNIT(*)SI_UNIT(.MILLI.,.METRE.));
#65=UNCERTAINTY_MEASURE_WITH_UNIT(LENGTH_MEASURE(0.000001000000000),#63,'DISTANCE_ACCURACY_VALUE','');
#67=(GEOMETRIC_REPRESENTATION_CONTEXT(3)GLOBAL_UNCERTAINTY_ASSIGNED_CONTEXT((#65))GLOBAL_UNIT_ASSIGNED_CONTEXT((#55,#59,#63))REPRESENTATION_CONTEXT('','3D'));
#68=CARTESIAN_POINT('',(-19.460686953124853,-1.687539E-013,0.0));
#69=DIRECTION('',(1.0,7.936469E-015,0.0));
#70=DIRECTION('',(0.0,0.0,-1.0));
#71=AXIS2_PLACEMENT_3D('',#68,#69,#70);
#72=TOROIDAL_SURFACE('',#71,40.640000000000136,10.159999999999998);
#73=CARTESIAN_POINT('',(-10.311977400939313,45.058904109589008,0.0));
#74=VERTEX_POINT('',#73);
#75=CARTESIAN_POINT('',(-10.311977400938954,-1.004874E-013,0.0));
#76=DIRECTION('',(1.0,0.0,0.0));
#77=DIRECTION('',(0.0,1.0,0.0));
#78=AXIS2_PLACEMENT_3D('',#75,#76,#77);
#79=CIRCLE('',#78,45.058904109589108);
#80=EDGE_CURVE('',#74,#74,#79,.T.);
#81=ORIENTED_EDGE('',*,*,#80,.F.);
#82=EDGE_LOOP('',(#81));
#83=FACE_OUTER_BOUND('',#82,.T.);
#84=CARTESIAN_POINT('',(-19.460686953125172,50.799999999999969,0.0));
#85=VERTEX_POINT('',#84);
#86=CARTESIAN_POINT('',(-19.460686953124767,-1.730959E-013,0.0));
#87=DIRECTION('',(1.0,0.0,0.0));
#88=DIRECTION('',(0.0,1.0,0.0));
#89=AXIS2_PLACEMENT_3D('',#86,#87,#88);
#90=CIRCLE('',#89,50.800000000000132);
#91=EDGE_CURVE('',#85,#85,#90,.T.);
#92=ORIENTED_EDGE('',*,*,#91,.T.);
#93=EDGE_LOOP('',(#92));
#94=FACE_BOUND('',#93,.T.);
#95=ADVANCED_FACE('',(#83,#94),#72,.T.);
#96=CARTESIAN_POINT('',(-103.599999999999990,-3.767777E-014,0.0));
#97=DIRECTION('',(0.0,0.0,1.0));
#98=DIRECTION('',(1.0,0.0,0.0));
#99=AXIS2_PLACEMENT_3D('',#96,#97,#98);
#100=SPHERICAL_SURFACE('',#99,103.600000000000790);
#101=ORIENTED_EDGE('',*,*,#80,.T.);
#102=EDGE_LOOP('',(#101));
#103=FACE_OUTER_BOUND('',#102,.T.);
#104=ADVANCED_FACE('',(#103),#100,.T.);
#105=CARTESIAN_POINT('',(-21.219206230061218,-39.790620312589773,-44.189041095890495));
#106=CARTESIAN_POINT('',(-1.999999999999403,-49.073659511573652,0.0));
#107=CARTESIAN_POINT('',(-21.219206230061218,-39.790620312589773,44.189041095890495));
#108=CARTESIAN_POINT('',(-1.999999999999020,-1.065814E-013,-44.189041095890495));
#109=CARTESIAN_POINT('',(21.702992695451798,-1.136868E-013,0.0));
#110=CARTESIAN_POINT('',(-1.999999999999020,-1.065814E-013,44.189041095890495));
#111=CARTESIAN_POINT('',(-21.219206230061168,39.790620312589581,-44.189041095890495));
#112=CARTESIAN_POINT('',(-1.999999999999353,49.073659511573446,0.0));
#113=CARTESIAN_POINT('',(-21.219206230061168,39.790620312589581,44.189041095890495));
#121=(BOUNDED_SURFACE()B_SPLINE_SURFACE(2,2,((#105,#108,#111),(#106,#109,#112),(#107,#110,#113)),.UNSPECIFIED.,.F.,.F.,.U.)B_SPLINE_SURFACE_WITH_KNOTS((3,3),(3,3),(-0.449962211049077,0.449962211049077),(0.0,0.899924422098162),.UNSPECIFIED.)GEOMETRIC_REPRESENTATION_ITEM()RATIONAL_B_SPLINE_SURFACE(((1.0,0.900463538600972,1.0),(0.900463538600972,0.810834584349784,0.900463538600972),(1.0,0.900463538600972,1.0)))REPRESENTATION_ITEM('')SURFACE());
#122=CARTESIAN_POINT('',(-12.112904478141239,44.189041095890374,0.0));
#123=VERTEX_POINT('',#122);
#124=CARTESIAN_POINT('',(-12.112904478140889,-1.147804E-013,0.0));
#125=DIRECTION('',(1.0,0.0,0.0));
#126=DIRECTION('',(0.0,1.0,0.0));
#127=AXIS2_PLACEMENT_3D('',#124,#125,#126);
#128=CIRCLE('',#127,44.189041095890495);
#129=EDGE_CURVE('',#123,#123,#128,.T.);
#130=ORIENTED_EDGE('',*,*,#129,.F.);
#131=EDGE_LOOP('',(#130));
#132=FACE_OUTER_BOUND('',#131,.T.);
#133=ADVANCED_FACE('',(#132),#121,.T.);
#134=CARTESIAN_POINT('',(-19.460686953125567,-1.747300E-013,48.800000000000139));
#135=CARTESIAN_POINT('',(-11.300686953124849,-1.099684E-013,48.800000000000850));
#136=CARTESIAN_POINT('',(-11.300686953124849,-1.089691E-013,40.640000000000136));
#137=CARTESIAN_POINT('',(-11.300686953124849,-1.079698E-013,32.479999999999421));
#138=CARTESIAN_POINT('',(-19.460686953125567,-1.727314E-013,32.480000000000132));
#139=CARTESIAN_POINT('',(-19.460686953125180,-48.800000000000303,48.800000000000118));
#140=CARTESIAN_POINT('',(-11.300686953124462,-48.800000000000949,48.800000000000828));
#141=CARTESIAN_POINT('',(-11.300686953124526,-40.640000000000242,40.640000000000121));
#142=CARTESIAN_POINT('',(-11.300686953124591,-32.479999999999528,32.479999999999407));
#143=CARTESIAN_POINT('',(-19.460686953125307,-32.480000000000302,32.480000000000118));
#144=CARTESIAN_POINT('',(-19.460686953125180,-48.800000000000310,-5.976079E-015));
#145=CARTESIAN_POINT('',(-11.300686953124462,-48.800000000000963,-5.976079E-015));
#146=CARTESIAN_POINT('',(-11.300686953124526,-40.640000000000242,-4.976800E-015));
#147=CARTESIAN_POINT('',(-11.300686953124591,-32.479999999999528,-3.977521E-015));
#148=CARTESIAN_POINT('',(-19.460686953125307,-32.480000000000302,-3.977521E-015));
#149=CARTESIAN_POINT('',(-19.460686953125180,-48.800000000000296,-48.800000000000132));
#150=CARTESIAN_POINT('',(-11.300686953124462,-48.800000000000935,-48.800000000000843));
#151=CARTESIAN_POINT('',(-11.300686953124526,-40.640000000000228,-40.640000000000136));
#152=CARTESIAN_POINT('',(-11.300686953124591,-32.479999999999514,-32.479999999999421));
#153=CARTESIAN_POINT('',(-19.460686953125307,-32.480000000000288,-32.480000000000132));
#154=CARTESIAN_POINT('',(-19.460686953125567,-1.627778E-013,-48.800000000000139));
#155=CARTESIAN_POINT('',(-11.300686953124849,-9.801624E-014,-48.800000000000850));
#156=CARTESIAN_POINT('',(-11.300686953124849,-9.901552E-014,-40.640000000000136));
#157=CARTESIAN_POINT('',(-11.300686953124849,-1.000148E-013,-32.479999999999421));
#158=CARTESIAN_POINT('',(-19.460686953125567,-1.647764E-013,-32.480000000000132));
#159=CARTESIAN_POINT('',(-19.460686953125954,48.799999999999962,-48.800000000000118));
#160=CARTESIAN_POINT('',(-11.300686953125236,48.800000000000736,-48.800000000000828));
#161=CARTESIAN_POINT('',(-11.300686953125172,40.640000000000029,-40.640000000000121));
#162=CARTESIAN_POINT('',(-11.300686953125107,32.479999999999315,-32.479999999999407));
#163=CARTESIAN_POINT('',(-19.460686953125826,32.479999999999961,-32.480000000000118));
#164=CARTESIAN_POINT('',(-19.460686953125954,48.799999999999969,5.976079E-015));
#165=CARTESIAN_POINT('',(-11.300686953125236,48.800000000000743,5.976079E-015));
#166=CARTESIAN_POINT('',(-11.300686953125172,40.640000000000029,4.976800E-015));
#167=CARTESIAN_POINT('',(-11.300686953125107,32.479999999999315,3.977521E-015));
#168=CARTESIAN_POINT('',(-19.460686953125826,32.479999999999961,3.977521E-015));
#169=CARTESIAN_POINT('',(-19.460686953125954,48.799999999999947,48.800000000000132));
#170=CARTESIAN_POINT('',(-11.300686953125236,48.800000000000722,48.800000000000843));
#171=CARTESIAN_POINT('',(-11.300686953125172,40.640000000000015,40.640000000000136));
#172=CARTESIAN_POINT('',(-11.300686953125107,32.479999999999301,32.479999999999421));
#173=CARTESIAN_POINT('',(-19.460686953125826,32.479999999999947,32.480000000000132));
#174=CARTESIAN_POINT('',(-19.460686953125567,-1.747300E-013,48.800000000000139));
#175=CARTESIAN_POINT('',(-11.300686953124849,-1.099684E-013,48.800000000000850));
#176=CARTESIAN_POINT('',(-11.300686953124849,-1.089691E-013,40.640000000000136));
#177=CARTESIAN_POINT('',(-11.300686953124849,-1.079698E-013,32.479999999999421));
#178=CARTESIAN_POINT('',(-19.460686953125567,-1.727314E-013,32.480000000000132));
#186=(BOUNDED_SURFACE()B_SPLINE_SURFACE(2,2,((#134,#139,#144,#149,#154,#159,#164,#169,#174),(#135,#140,#145,#150,#155,#160,#165,#170,#175),(#136,#141,#146,#151,#156,#161,#166,#171,#176),(#137,#142,#147,#152,#157,#162,#167,#172,#177),(#138,#143,#148,#153,#158,#163,#168,#173,#178)),.UNSPECIFIED.,.F.,.T.,.U.)B_SPLINE_SURFACE_WITH_KNOTS((3,2,3),(3,2,2,2,3),(-8.751830E-014,1.570796326794897,3.141592653589881),(0.0,1.570796326794897,3.141592653589793,4.712388980384690,6.283185307179586),.UNSPECIFIED.)GEOMETRIC_REPRESENTATION_ITEM()RATIONAL_B_SPLINE_SURFACE(((1.0,0.707106781186548,1.0,0.707106781186548,1.0,0.707106781186548,1.0,0.707106781186548,1.0),(0.707106781186518,0.499999999999979,0.707106781186518,0.499999999999979,0.707106781186518,0.499999999999979,0.707106781186518,0.499999999999979,0.707106781186518),(1.0,0.707106781186548,1.0,0.707106781186548,1.0,0.707106781186548,1.0,0.707106781186548,1.0),(0.707106781186518,0.499999999999979,0.707106781186518,0.499999999999979,0.707106781186518,0.499999999999979,0.707106781186518,0.499999999999979,0.707106781186518),(1.0,0.707106781186548,1.0,0.707106781186548,1.0,0.707106781186548,1.0,0.707106781186548,1.0)))REPRESENTATION_ITEM('')SURFACE());
#187=CARTESIAN_POINT('',(-19.460686953125176,48.799999999999969,0.0));
#188=VERTEX_POINT('',#187);
#189=CARTESIAN_POINT('',(-19.460686953124792,-1.730959E-013,0.0));
#190=DIRECTION('',(1.0,0.0,0.0));
#191=DIRECTION('',(0.0,1.0,0.0));
#192=AXIS2_PLACEMENT_3D('',#189,#190,#191);
#193=CIRCLE('',#192,48.800000000000139);
#194=EDGE_CURVE('',#188,#188,#193,.T.);
#195=ORIENTED_EDGE('',*,*,#194,.F.);
#196=EDGE_LOOP('',(#195));
#197=FACE_OUTER_BOUND('',#196,.T.);
#198=ORIENTED_EDGE('',*,*,#129,.T.);
#199=EDGE_LOOP('',(#198));
#200=FACE_BOUND('',#199,.T.);
#201=ADVANCED_FACE('',(#197,#200),#186,.T.);
#202=CARTESIAN_POINT('',(-23.730343476562204,-2.069819E-013,0.0));
#203=DIRECTION('',(1.0,7.936469E-015,0.0));
#204=DIRECTION('',(0.0,1.0,0.0));
#205=AXIS2_PLACEMENT_3D('',#202,#203,#204);
#206=CYLINDRICAL_SURFACE('',#205,48.800000000000175);
#207=CARTESIAN_POINT('',(-28.0,48.799999999999969,0.0));
#208=VERTEX_POINT('',#207);
#209=CARTESIAN_POINT('',(-27.999999999999613,-2.408679E-013,0.0));
#210=DIRECTION('',(1.0,0.0,0.0));
#211=DIRECTION('',(0.0,1.0,0.0));
#212=AXIS2_PLACEMENT_3D('',#209,#210,#211);
#213=CIRCLE('',#212,48.800000000000210);
#214=EDGE_CURVE('',#208,#208,#213,.T.);
#215=ORIENTED_EDGE('',*,*,#214,.F.);
#216=EDGE_LOOP('',(#215));
#217=FACE_OUTER_BOUND('',#216,.T.);
#218=ORIENTED_EDGE('',*,*,#194,.T.);
#219=EDGE_LOOP('',(#218));
#220=FACE_BOUND('',#219,.T.);
#221=ADVANCED_FACE('',(#217,#220),#206,.F.);
#222=CARTESIAN_POINT('',(-28.0,49.799999999999969,0.0));
#223=DIRECTION('',(-1.0,0.0,0.0));
#224=DIRECTION('',(0.0,0.0,1.0));
#225=AXIS2_PLACEMENT_3D('',#222,#223,#224);
#226=PLANE('',#225);
#227=CARTESIAN_POINT('',(-28.000000000000004,50.799999999999969,0.0));
#228=VERTEX_POINT('',#227);
#229=CARTESIAN_POINT('',(-27.999999999999599,-2.408679E-013,0.0));
#230=DIRECTION('',(1.0,0.0,0.0));
#231=DIRECTION('',(0.0,1.0,0.0));
#232=AXIS2_PLACEMENT_3D('',#229,#230,#231);
#233=CIRCLE('',#232,50.800000000000203);
#234=EDGE_CURVE('',#228,#228,#233,.T.);
#235=ORIENTED_EDGE('',*,*,#234,.F.);
#236=EDGE_LOOP('',(#235));
#237=FACE_OUTER_BOUND('',#236,.T.);
#238=ORIENTED_EDGE('',*,*,#214,.T.);
#239=EDGE_LOOP('',(#238));
#240=FACE_BOUND('',#239,.T.);
#241=ADVANCED_FACE('',(#237,#240),#226,.T.);
#242=CARTESIAN_POINT('',(-23.730343476562187,-2.069819E-013,0.0));
#243=DIRECTION('',(1.0,7.936469E-015,0.0));
#244=DIRECTION('',(0.0,1.0,0.0));
#245=AXIS2_PLACEMENT_3D('',#242,#243,#244);
#246=CYLINDRICAL_SURFACE('',#245,50.800000000000168);
#247=ORIENTED_EDGE('',*,*,#91,.F.);
#248=EDGE_LOOP('',(#247));
#249=FACE_OUTER_BOUND('',#248,.T.);
#250=ORIENTED_EDGE('',*,*,#234,.T.);
#251=EDGE_LOOP('',(#250));
#252=FACE_BOUND('',#251,.T.);
#253=ADVANCED_FACE('',(#249,#252),#246,.T.);
#254=CLOSED_SHELL('',(#95,#104,#133,#201,#221,#241,#253));
#255=MANIFOLD_SOLID_BREP('',#254);
#256=COLOUR_RGB('Metall - Stahl',0.639216005802155,0.639216005802155,0.686275005340576);
#257=FILL_AREA_STYLE_COLOUR('Metall - Stahl',#256);
#258=FILL_AREA_STYLE('Metall - Stahl',(#257));
#259=SURFACE_STYLE_FILL_AREA(#258);
#260=SURFACE_SIDE_STYLE('Metall - Stahl',(#259));
#261=SURFACE_STYLE_USAGE(.BOTH.,#260);
#262=PRESENTATION_STYLE_ASSIGNMENT((#261));
#263=STYLED_ITEM('',(#262),#255);
#264=MECHANICAL_DESIGN_GEOMETRIC_PRESENTATION_REPRESENTATION('',(#263),#36);
#265=ADVANCED_BREP_SHAPE_REPRESENTATION('ABSR',(#255),#36);
#266=SHAPE_REPRESENTATION_RELATIONSHIP('SRR','None',#265,#41);
ENDSEC;
END-ISO-10303-21;
