ISO-10303-21;
HEADER;
/****************************************************************
 * Generated by software with PDE/Lib inside                    *
 * PDElib Version v51a, created Thu 12/14/2006                  *
 * International Technegroup Inc. (www.iti-oh.com)              *
 ****************************************************************/
FILE_DESCRIPTION((''),'2;1');
FILE_NAME('T:\\Arbeitspl\S\dtze\\Aushilfe\\KPeters\\3D\\Steps 08_10\\11401\\11401112x.stp','2010-08-03T11:32:59',('thilbrands'),(''),'Autodesk Inventor 2008','Autodesk Inventor 2008','');
FILE_SCHEMA(('AUTOMOTIVE_DESIGN { 1 0 10303 214 1 1 1 1 }'));
ENDSEC;
DATA;
#5=APPLICATION_CONTEXT('automotive design');
#6=APPLICATION_PROTOCOL_DEFINITION('International Standard','automotive_design',2001,#5);
#7=PRODUCT_CONTEXT('',#5,'mechanical');
#8=PRODUCT('114011001','114011001',$,(#7));
#9=PRODUCT_RELATED_PRODUCT_CATEGORY('part',$,(#8));
#10=PRODUCT_DEFINITION_FORMATION('',$,#8);
#11=PRODUCT_DEFINITION_CONTEXT('part definition',#5,'design');
#12=PRODUCT_DEFINITION('',$,#10,#11);
#18=(NAMED_UNIT(*)PLANE_ANGLE_UNIT()SI_UNIT($,.RADIAN.));
#19=DIMENSIONAL_EXPONENTS(0.0,0.0,0.0,0.0,0.0,0.0,0.0);
#20=PLANE_ANGLE_MEASURE_WITH_UNIT(PLANE_ANGLE_MEASURE(0.017453292500000),#18);
#24=(CONVERSION_BASED_UNIT('DEGREE',#20)NAMED_UNIT(#19)PLANE_ANGLE_UNIT());
#28=(NAMED_UNIT(*)SI_UNIT($,.STERADIAN.)SOLID_ANGLE_UNIT());
#32=(LENGTH_UNIT()NAMED_UNIT(*)SI_UNIT(.MILLI.,.METRE.));
#34=UNCERTAINTY_MEASURE_WITH_UNIT(LENGTH_MEASURE(0.010000000000000),#32,'DISTANCE_ACCURACY_VALUE','');
#36=(GEOMETRIC_REPRESENTATION_CONTEXT(3)GLOBAL_UNCERTAINTY_ASSIGNED_CONTEXT((#34))GLOBAL_UNIT_ASSIGNED_CONTEXT((#24,#28,#32))REPRESENTATION_CONTEXT('None','None'));
#37=AXIS2_PLACEMENT_3D('',#38,#39,#40);
#38=CARTESIAN_POINT('',(0.0,0.0,0.0));
#39=DIRECTION('',(0.0,0.0,1.0));
#40=DIRECTION('',(1.0,0.0,0.0));
#41=SHAPE_REPRESENTATION('',(#37),#36);
#42=PRODUCT_DEFINITION_SHAPE('','',#12);
#43=SHAPE_DEFINITION_REPRESENTATION(#42,#41);
#49=(NAMED_UNIT(*)PLANE_ANGLE_UNIT()SI_UNIT($,.RADIAN.));
#50=DIMENSIONAL_EXPONENTS(0.0,0.0,0.0,0.0,0.0,0.0,0.0);
#51=PLANE_ANGLE_MEASURE_WITH_UNIT(PLANE_ANGLE_MEASURE(0.017453292500000),#49);
#55=(CONVERSION_BASED_UNIT('DEGREE',#51)NAMED_UNIT(#50)PLANE_ANGLE_UNIT());
#59=(NAMED_UNIT(*)SI_UNIT($,.STERADIAN.)SOLID_ANGLE_UNIT());
#63=(LENGTH_UNIT()NAMED_UNIT(*)SI_UNIT(.MILLI.,.METRE.));
#65=UNCERTAINTY_MEASURE_WITH_UNIT(LENGTH_MEASURE(0.000001000000000),#63,'DISTANCE_ACCURACY_VALUE','');
#67=(GEOMETRIC_REPRESENTATION_CONTEXT(3)GLOBAL_UNCERTAINTY_ASSIGNED_CONTEXT((#65))GLOBAL_UNIT_ASSIGNED_CONTEXT((#55,#59,#63))REPRESENTATION_CONTEXT('','3D'));
#68=CARTESIAN_POINT('',(-12.999999999999998,0.0,0.0));
#69=DIRECTION('',(1.0,0.0,0.0));
#70=DIRECTION('',(0.0,1.0,0.0));
#71=AXIS2_PLACEMENT_3D('',#68,#69,#70);
#72=CYLINDRICAL_SURFACE('',#71,17.549999999999997);
#73=CARTESIAN_POINT('',(-25.999999999999996,17.549999999999994,0.0));
#74=VERTEX_POINT('',#73);
#75=CARTESIAN_POINT('',(-25.999999999999996,0.0,0.0));
#76=DIRECTION('',(1.0,0.0,0.0));
#77=DIRECTION('',(0.0,1.0,0.0));
#78=AXIS2_PLACEMENT_3D('',#75,#76,#77);
#79=CIRCLE('',#78,17.549999999999994);
#80=EDGE_CURVE('',#74,#74,#79,.T.);
#81=ORIENTED_EDGE('',*,*,#80,.F.);
#82=EDGE_LOOP('',(#81));
#83=FACE_OUTER_BOUND('',#82,.T.);
#84=CARTESIAN_POINT('',(-2.220446E-015,17.550000000000001,0.0));
#85=VERTEX_POINT('',#84);
#86=CARTESIAN_POINT('',(-2.220446E-015,0.0,0.0));
#87=DIRECTION('',(1.0,0.0,0.0));
#88=DIRECTION('',(0.0,1.0,0.0));
#89=AXIS2_PLACEMENT_3D('',#86,#87,#88);
#90=CIRCLE('',#89,17.550000000000001);
#91=EDGE_CURVE('',#85,#85,#90,.T.);
#92=ORIENTED_EDGE('',*,*,#91,.T.);
#93=EDGE_LOOP('',(#92));
#94=FACE_BOUND('',#93,.T.);
#95=ADVANCED_FACE('',(#83,#94),#72,.F.);
#96=CARTESIAN_POINT('',(-26.000000000000007,17.799999999999994,0.0));
#97=DIRECTION('',(-1.0,0.0,0.0));
#98=DIRECTION('',(0.0,0.0,1.0));
#99=AXIS2_PLACEMENT_3D('',#96,#97,#98);
#100=PLANE('',#99);
#101=CARTESIAN_POINT('',(-26.000000000000011,18.049999999999994,0.0));
#102=VERTEX_POINT('',#101);
#103=CARTESIAN_POINT('',(-26.000000000000007,0.0,0.0));
#104=DIRECTION('',(1.0,0.0,0.0));
#105=DIRECTION('',(0.0,1.0,0.0));
#106=AXIS2_PLACEMENT_3D('',#103,#104,#105);
#107=CIRCLE('',#106,18.049999999999994);
#108=EDGE_CURVE('',#102,#102,#107,.T.);
#109=ORIENTED_EDGE('',*,*,#108,.F.);
#110=EDGE_LOOP('',(#109));
#111=FACE_OUTER_BOUND('',#110,.T.);
#112=ORIENTED_EDGE('',*,*,#80,.T.);
#113=EDGE_LOOP('',(#112));
#114=FACE_BOUND('',#113,.T.);
#115=ADVANCED_FACE('',(#111,#114),#100,.T.);
#116=CARTESIAN_POINT('',(-25.674321765180615,0.0,0.0));
#117=DIRECTION('',(1.0,0.0,0.0));
#118=DIRECTION('',(0.0,1.0,0.0));
#119=AXIS2_PLACEMENT_3D('',#116,#117,#118);
#120=CONICAL_SURFACE('',#119,21.772519257856633,85.0);
#121=CARTESIAN_POINT('',(-25.348643530361230,25.495038515713269,0.0));
#122=VERTEX_POINT('',#121);
#123=CARTESIAN_POINT('',(-25.348643530361230,0.0,0.0));
#124=DIRECTION('',(1.0,0.0,0.0));
#125=DIRECTION('',(0.0,1.0,0.0));
#126=AXIS2_PLACEMENT_3D('',#123,#124,#125);
#127=CIRCLE('',#126,25.495038515713269);
#128=EDGE_CURVE('',#122,#122,#127,.T.);
#129=ORIENTED_EDGE('',*,*,#128,.F.);
#130=EDGE_LOOP('',(#129));
#131=FACE_OUTER_BOUND('',#130,.T.);
#132=ORIENTED_EDGE('',*,*,#108,.T.);
#133=EDGE_LOOP('',(#132));
#134=FACE_BOUND('',#133,.T.);
#135=ADVANCED_FACE('',(#131,#134),#120,.T.);
#136=CARTESIAN_POINT('',(-20.674321765180615,0.0,0.0));
#137=DIRECTION('',(1.0,0.0,0.0));
#138=DIRECTION('',(0.0,1.0,0.0));
#139=AXIS2_PLACEMENT_3D('',#136,#137,#138);
#140=CONICAL_SURFACE('',#139,26.747519257856638,15.000000000000025);
#141=CARTESIAN_POINT('',(-16.000000000000007,28.000000000000004,0.0));
#142=VERTEX_POINT('',#141);
#143=CARTESIAN_POINT('',(-16.000000000000007,0.0,0.0));
#144=DIRECTION('',(1.0,0.0,0.0));
#145=DIRECTION('',(0.0,1.0,0.0));
#146=AXIS2_PLACEMENT_3D('',#143,#144,#145);
#147=CIRCLE('',#146,28.000000000000004);
#148=EDGE_CURVE('',#142,#142,#147,.T.);
#149=ORIENTED_EDGE('',*,*,#148,.F.);
#150=EDGE_LOOP('',(#149));
#151=FACE_OUTER_BOUND('',#150,.T.);
#152=ORIENTED_EDGE('',*,*,#128,.T.);
#153=EDGE_LOOP('',(#152));
#154=FACE_BOUND('',#153,.T.);
#155=ADVANCED_FACE('',(#151,#154),#140,.T.);
#156=CARTESIAN_POINT('',(-16.000000000000007,26.000000000000007,0.0));
#157=DIRECTION('',(1.0,0.0,0.0));
#158=DIRECTION('',(0.0,0.0,-1.0));
#159=AXIS2_PLACEMENT_3D('',#156,#157,#158);
#160=PLANE('',#159);
#161=ORIENTED_EDGE('',*,*,#148,.T.);
#162=EDGE_LOOP('',(#161));
#163=FACE_OUTER_BOUND('',#162,.T.);
#164=CARTESIAN_POINT('',(-16.000000000000007,24.000000000000004,0.0));
#165=VERTEX_POINT('',#164);
#166=CARTESIAN_POINT('',(-16.000000000000007,0.0,0.0));
#167=DIRECTION('',(1.0,0.0,0.0));
#168=DIRECTION('',(0.0,1.0,0.0));
#169=AXIS2_PLACEMENT_3D('',#166,#167,#168);
#170=CIRCLE('',#169,24.000000000000004);
#171=EDGE_CURVE('',#165,#165,#170,.T.);
#172=ORIENTED_EDGE('',*,*,#171,.F.);
#173=EDGE_LOOP('',(#172));
#174=FACE_BOUND('',#173,.T.);
#175=ADVANCED_FACE('',(#163,#174),#160,.T.);
#176=CARTESIAN_POINT('',(-14.500000000000004,0.0,0.0));
#177=DIRECTION('',(1.0,0.0,0.0));
#178=DIRECTION('',(0.0,1.0,0.0));
#179=AXIS2_PLACEMENT_3D('',#176,#177,#178);
#180=CYLINDRICAL_SURFACE('',#179,24.000000000000004);
#181=CARTESIAN_POINT('',(-13.000000000000004,24.000000000000004,0.0));
#182=VERTEX_POINT('',#181);
#183=CARTESIAN_POINT('',(-13.000000000000004,0.0,0.0));
#184=DIRECTION('',(1.0,0.0,0.0));
#185=DIRECTION('',(0.0,1.0,0.0));
#186=AXIS2_PLACEMENT_3D('',#183,#184,#185);
#187=CIRCLE('',#186,24.000000000000004);
#188=EDGE_CURVE('',#182,#182,#187,.T.);
#189=ORIENTED_EDGE('',*,*,#188,.F.);
#190=EDGE_LOOP('',(#189));
#191=FACE_OUTER_BOUND('',#190,.T.);
#192=ORIENTED_EDGE('',*,*,#171,.T.);
#193=EDGE_LOOP('',(#192));
#194=FACE_BOUND('',#193,.T.);
#195=ADVANCED_FACE('',(#191,#194),#180,.T.);
#196=CARTESIAN_POINT('',(-13.000000000000004,22.024999999999999,0.0));
#197=DIRECTION('',(1.0,0.0,0.0));
#198=DIRECTION('',(0.0,0.0,-1.0));
#199=AXIS2_PLACEMENT_3D('',#196,#197,#198);
#200=PLANE('',#199);
#201=ORIENTED_EDGE('',*,*,#188,.T.);
#202=EDGE_LOOP('',(#201));
#203=FACE_OUTER_BOUND('',#202,.T.);
#204=CARTESIAN_POINT('',(-13.000000000000004,20.049999999999994,0.0));
#205=VERTEX_POINT('',#204);
#206=CARTESIAN_POINT('',(-13.000000000000004,0.0,0.0));
#207=DIRECTION('',(1.0,0.0,0.0));
#208=DIRECTION('',(0.0,1.0,0.0));
#209=AXIS2_PLACEMENT_3D('',#206,#207,#208);
#210=CIRCLE('',#209,20.049999999999994);
#211=EDGE_CURVE('',#205,#205,#210,.T.);
#212=ORIENTED_EDGE('',*,*,#211,.F.);
#213=EDGE_LOOP('',(#212));
#214=FACE_BOUND('',#213,.T.);
#215=ADVANCED_FACE('',(#203,#214),#200,.T.);
#216=CARTESIAN_POINT('',(-12.000000000000002,-2.332875E-015,19.049999999999990));
#217=CARTESIAN_POINT('',(-13.000000000000004,-2.332875E-015,19.049999999999990));
#218=CARTESIAN_POINT('',(-13.000000000000005,-2.455336E-015,20.049999999999994));
#219=CARTESIAN_POINT('',(-13.000000000000004,-2.577796E-015,21.049999999999997));
#220=CARTESIAN_POINT('',(-12.000000000000002,-2.577796E-015,21.049999999999997));
#221=CARTESIAN_POINT('',(-12.0,-19.049999999999990,19.049999999999983));
#222=CARTESIAN_POINT('',(-13.000000000000005,-19.049999999999990,19.049999999999983));
#223=CARTESIAN_POINT('',(-13.000000000000005,-20.049999999999994,20.049999999999986));
#224=CARTESIAN_POINT('',(-13.000000000000005,-21.049999999999997,21.049999999999990));
#225=CARTESIAN_POINT('',(-12.0,-21.049999999999997,21.049999999999990));
#226=CARTESIAN_POINT('',(-12.000000000000002,-19.049999999999990,-2.332875E-015));
#227=CARTESIAN_POINT('',(-13.000000000000004,-19.049999999999990,-2.332875E-015));
#228=CARTESIAN_POINT('',(-13.000000000000005,-20.049999999999994,-2.455336E-015));
#229=CARTESIAN_POINT('',(-13.000000000000004,-21.049999999999997,-2.577796E-015));
#230=CARTESIAN_POINT('',(-12.000000000000002,-21.049999999999997,-2.577796E-015));
#231=CARTESIAN_POINT('',(-12.0,-19.049999999999983,-19.049999999999990));
#232=CARTESIAN_POINT('',(-13.000000000000005,-19.049999999999983,-19.049999999999990));
#233=CARTESIAN_POINT('',(-13.000000000000005,-20.049999999999986,-20.049999999999994));
#234=CARTESIAN_POINT('',(-13.000000000000005,-21.049999999999990,-21.049999999999997));
#235=CARTESIAN_POINT('',(-12.0,-21.049999999999990,-21.049999999999997));
#236=CARTESIAN_POINT('',(-12.000000000000002,2.332875E-015,-19.049999999999990));
#237=CARTESIAN_POINT('',(-13.000000000000004,2.332875E-015,-19.049999999999990));
#238=CARTESIAN_POINT('',(-13.000000000000005,2.455336E-015,-20.049999999999994));
#239=CARTESIAN_POINT('',(-13.000000000000004,2.577796E-015,-21.049999999999997));
#240=CARTESIAN_POINT('',(-12.000000000000002,2.577796E-015,-21.049999999999997));
#241=CARTESIAN_POINT('',(-12.0,19.049999999999990,-19.049999999999983));
#242=CARTESIAN_POINT('',(-13.000000000000005,19.049999999999990,-19.049999999999983));
#243=CARTESIAN_POINT('',(-13.000000000000005,20.049999999999994,-20.049999999999986));
#244=CARTESIAN_POINT('',(-13.000000000000005,21.049999999999997,-21.049999999999990));
#245=CARTESIAN_POINT('',(-12.0,21.049999999999997,-21.049999999999990));
#246=CARTESIAN_POINT('',(-12.000000000000002,19.049999999999990,2.332875E-015));
#247=CARTESIAN_POINT('',(-13.000000000000004,19.049999999999990,2.332875E-015));
#248=CARTESIAN_POINT('',(-13.000000000000005,20.049999999999994,2.455336E-015));
#249=CARTESIAN_POINT('',(-13.000000000000004,21.049999999999997,2.577796E-015));
#250=CARTESIAN_POINT('',(-12.000000000000002,21.049999999999997,2.577796E-015));
#251=CARTESIAN_POINT('',(-12.0,19.049999999999983,19.049999999999990));
#252=CARTESIAN_POINT('',(-13.000000000000005,19.049999999999983,19.049999999999990));
#253=CARTESIAN_POINT('',(-13.000000000000005,20.049999999999986,20.049999999999994));
#254=CARTESIAN_POINT('',(-13.000000000000005,21.049999999999990,21.049999999999997));
#255=CARTESIAN_POINT('',(-12.0,21.049999999999990,21.049999999999997));
#256=CARTESIAN_POINT('',(-12.000000000000002,-2.332875E-015,19.049999999999990));
#257=CARTESIAN_POINT('',(-13.000000000000004,-2.332875E-015,19.049999999999990));
#258=CARTESIAN_POINT('',(-13.000000000000005,-2.455336E-015,20.049999999999994));
#259=CARTESIAN_POINT('',(-13.000000000000004,-2.577796E-015,21.049999999999997));
#260=CARTESIAN_POINT('',(-12.000000000000002,-2.577796E-015,21.049999999999997));
#268=(BOUNDED_SURFACE()B_SPLINE_SURFACE(2,2,((#216,#221,#226,#231,#236,#241,#246,#251,#256),(#217,#222,#227,#232,#237,#242,#247,#252,#257),(#218,#223,#228,#233,#238,#243,#248,#253,#258),(#219,#224,#229,#234,#239,#244,#249,#254,#259),(#220,#225,#230,#235,#240,#245,#250,#255,#260)),.UNSPECIFIED.,.F.,.T.,.U.)B_SPLINE_SURFACE_WITH_KNOTS((3,2,3),(3,2,2,2,3),(-3.141592653589793,-1.570796326794897,0.0),(0.0,1.570796326794897,3.141592653589793,4.712388980384690,6.283185307179586),.UNSPECIFIED.)GEOMETRIC_REPRESENTATION_ITEM()RATIONAL_B_SPLINE_SURFACE(((1.0,0.707106781186548,1.0,0.707106781186548,1.0,0.707106781186548,1.0,0.707106781186548,1.0),(0.707106781186545,0.499999999999999,0.707106781186545,0.499999999999999,0.707106781186545,0.499999999999999,0.707106781186545,0.499999999999999,0.707106781186545),(1.0,0.707106781186548,1.0,0.707106781186548,1.0,0.707106781186548,1.0,0.707106781186548,1.0),(0.707106781186545,0.499999999999999,0.707106781186545,0.499999999999999,0.707106781186545,0.499999999999999,0.707106781186545,0.499999999999999,0.707106781186545),(1.0,0.707106781186548,1.0,0.707106781186548,1.0,0.707106781186548,1.0,0.707106781186548,1.0)))REPRESENTATION_ITEM('')SURFACE());
#269=CARTESIAN_POINT('',(-12.000000000000002,19.049999999999997,0.0));
#270=VERTEX_POINT('',#269);
#271=CARTESIAN_POINT('',(-12.000000000000002,0.0,0.0));
#272=DIRECTION('',(1.0,0.0,0.0));
#273=DIRECTION('',(0.0,1.0,0.0));
#274=AXIS2_PLACEMENT_3D('',#271,#272,#273);
#275=CIRCLE('',#274,19.049999999999997);
#276=EDGE_CURVE('',#270,#270,#275,.T.);
#277=ORIENTED_EDGE('',*,*,#276,.F.);
#278=EDGE_LOOP('',(#277));
#279=FACE_OUTER_BOUND('',#278,.T.);
#280=ORIENTED_EDGE('',*,*,#211,.T.);
#281=EDGE_LOOP('',(#280));
#282=FACE_BOUND('',#281,.T.);
#283=ADVANCED_FACE('',(#279,#282),#268,.T.);
#284=CARTESIAN_POINT('',(-6.000000000000002,0.0,0.0));
#285=DIRECTION('',(1.0,0.0,0.0));
#286=DIRECTION('',(0.0,1.0,0.0));
#287=AXIS2_PLACEMENT_3D('',#284,#285,#286);
#288=CYLINDRICAL_SURFACE('',#287,19.049999999999997);
#289=CARTESIAN_POINT('',(-2.220446E-015,19.050000000000004,0.0));
#290=VERTEX_POINT('',#289);
#291=CARTESIAN_POINT('',(-2.220446E-015,0.0,0.0));
#292=DIRECTION('',(1.0,0.0,0.0));
#293=DIRECTION('',(0.0,1.0,0.0));
#294=AXIS2_PLACEMENT_3D('',#291,#292,#293);
#295=CIRCLE('',#294,19.050000000000004);
#296=EDGE_CURVE('',#290,#290,#295,.T.);
#297=ORIENTED_EDGE('',*,*,#296,.F.);
#298=EDGE_LOOP('',(#297));
#299=FACE_OUTER_BOUND('',#298,.T.);
#300=ORIENTED_EDGE('',*,*,#276,.T.);
#301=EDGE_LOOP('',(#300));
#302=FACE_BOUND('',#301,.T.);
#303=ADVANCED_FACE('',(#299,#302),#288,.T.);
#304=CARTESIAN_POINT('',(-2.220446E-015,18.300000000000001,0.0));
#305=DIRECTION('',(1.0,0.0,0.0));
#306=DIRECTION('',(0.0,0.0,-1.0));
#307=AXIS2_PLACEMENT_3D('',#304,#305,#306);
#308=PLANE('',#307);
#309=ORIENTED_EDGE('',*,*,#296,.T.);
#310=EDGE_LOOP('',(#309));
#311=FACE_OUTER_BOUND('',#310,.T.);
#312=ORIENTED_EDGE('',*,*,#91,.F.);
#313=EDGE_LOOP('',(#312));
#314=FACE_BOUND('',#313,.T.);
#315=ADVANCED_FACE('',(#311,#314),#308,.T.);
#316=CLOSED_SHELL('',(#95,#115,#135,#155,#175,#195,#215,#283,#303,#315));
#317=MANIFOLD_SOLID_BREP('',#316);
#318=COLOUR_RGB('Metall - Stahl',0.639216005802155,0.639216005802155,0.686275005340576);
#319=FILL_AREA_STYLE_COLOUR('Metall - Stahl',#318);
#320=FILL_AREA_STYLE('Metall - Stahl',(#319));
#321=SURFACE_STYLE_FILL_AREA(#320);
#322=SURFACE_SIDE_STYLE('Metall - Stahl',(#321));
#323=SURFACE_STYLE_USAGE(.BOTH.,#322);
#324=PRESENTATION_STYLE_ASSIGNMENT((#323));
#325=STYLED_ITEM('',(#324),#317);
#326=MECHANICAL_DESIGN_GEOMETRIC_PRESENTATION_REPRESENTATION('',(#325),#36);
#327=ADVANCED_BREP_SHAPE_REPRESENTATION('ABSR',(#317),#36);
#328=SHAPE_REPRESENTATION_RELATIONSHIP('SRR','None',#327,#41);
ENDSEC;
END-ISO-10303-21;
