ISO-10303-21;
HEADER;
/* Generated by software containing ST-Developer
 * from STEP Tools, Inc. (www.steptools.com) 
 */

FILE_DESCRIPTION(
/* description */ (''),
/* implementation_level */ '2;1');

FILE_NAME(
/* name */ 'Z:\\Geberit\\Export\\NewStep\\33729.stp',
/* time_stamp */ '2014-04-01T20:24:17+02:00',
/* author */ ('bruh'),
/* organization */ (''),
/* preprocessor_version */ 'ST-DEVELOPER v15.2',
/* originating_system */ 'Autodesk Inventor 2014',
/* authorisation */ '');

FILE_SCHEMA (('AUTOMOTIVE_DESIGN { 1 0 10303 214 3 1 1 }'));
ENDSEC;

DATA;
#10=ITEM_DEFINED_TRANSFORMATION($,$,#228,#263);
#11=ITEM_DEFINED_TRANSFORMATION($,$,#253,#264);
#12=(
REPRESENTATION_RELATIONSHIP($,$,#414,#416)
REPRESENTATION_RELATIONSHIP_WITH_TRANSFORMATION(#10)
SHAPE_REPRESENTATION_RELATIONSHIP()
);
#13=(
REPRESENTATION_RELATIONSHIP($,$,#415,#416)
REPRESENTATION_RELATIONSHIP_WITH_TRANSFORMATION(#11)
SHAPE_REPRESENTATION_RELATIONSHIP()
);
#14=CONTEXT_DEPENDENT_SHAPE_REPRESENTATION(#12,#412);
#15=CONTEXT_DEPENDENT_SHAPE_REPRESENTATION(#13,#413);
#16=NEXT_ASSEMBLY_USAGE_OCCURRENCE('100195:1',$,$,#420,#418,$);
#17=NEXT_ASSEMBLY_USAGE_OCCURRENCE('MAP Rohrende d76,1 L113:1',$,$,#420,
#419,$);
#18=SHAPE_REPRESENTATION_RELATIONSHIP('SRR','None',#414,#20);
#19=SHAPE_REPRESENTATION_RELATIONSHIP('SRR','None',#415,#21);
#20=ADVANCED_BREP_SHAPE_REPRESENTATION($,(#226),#397);
#21=ADVANCED_BREP_SHAPE_REPRESENTATION($,(#227),#398);
#22=PLANE($,#232);
#23=PLANE($,#248);
#24=PLANE($,#252);
#25=PLANE($,#260);
#26=PLANE($,#261);
#27=FACE_BOUND($,#64,.T.);
#28=FACE_BOUND($,#65,.T.);
#29=FACE_BOUND($,#66,.T.);
#30=FACE_BOUND($,#68,.T.);
#31=FACE_BOUND($,#70,.T.);
#32=FACE_BOUND($,#72,.T.);
#33=FACE_BOUND($,#74,.T.);
#34=FACE_BOUND($,#76,.T.);
#35=FACE_BOUND($,#77,.T.);
#36=FACE_BOUND($,#78,.T.);
#37=FACE_BOUND($,#79,.T.);
#38=FACE_BOUND($,#80,.T.);
#39=FACE_BOUND($,#81,.T.);
#40=FACE_BOUND($,#82,.T.);
#41=FACE_BOUND($,#84,.T.);
#42=FACE_BOUND($,#85,.T.);
#43=FACE_BOUND($,#86,.T.);
#44=FACE_BOUND($,#87,.T.);
#45=FACE_BOUND($,#88,.T.);
#46=FACE_BOUND($,#89,.T.);
#47=FACE_BOUND($,#90,.T.);
#48=FACE_BOUND($,#92,.T.);
#49=FACE_BOUND($,#94,.T.);
#50=FACE_BOUND($,#95,.T.);
#51=FACE_BOUND($,#96,.T.);
#52=FACE_BOUND($,#97,.T.);
#53=FACE_BOUND($,#98,.T.);
#54=FACE_OUTER_BOUND($,#63,.T.);
#55=FACE_OUTER_BOUND($,#67,.T.);
#56=FACE_OUTER_BOUND($,#69,.T.);
#57=FACE_OUTER_BOUND($,#71,.T.);
#58=FACE_OUTER_BOUND($,#73,.T.);
#59=FACE_OUTER_BOUND($,#75,.T.);
#60=FACE_OUTER_BOUND($,#83,.T.);
#61=FACE_OUTER_BOUND($,#91,.T.);
#62=FACE_OUTER_BOUND($,#93,.T.);
#63=EDGE_LOOP($,(#153));
#64=EDGE_LOOP($,(#154));
#65=EDGE_LOOP($,(#155));
#66=EDGE_LOOP($,(#156));
#67=EDGE_LOOP($,(#157));
#68=EDGE_LOOP($,(#158));
#69=EDGE_LOOP($,(#159));
#70=EDGE_LOOP($,(#160));
#71=EDGE_LOOP($,(#161));
#72=EDGE_LOOP($,(#162));
#73=EDGE_LOOP($,(#163));
#74=EDGE_LOOP($,(#164));
#75=EDGE_LOOP($,(#165));
#76=EDGE_LOOP($,(#166));
#77=EDGE_LOOP($,(#167));
#78=EDGE_LOOP($,(#168));
#79=EDGE_LOOP($,(#169));
#80=EDGE_LOOP($,(#170));
#81=EDGE_LOOP($,(#171));
#82=EDGE_LOOP($,(#172));
#83=EDGE_LOOP($,(#173));
#84=EDGE_LOOP($,(#174));
#85=EDGE_LOOP($,(#175));
#86=EDGE_LOOP($,(#176));
#87=EDGE_LOOP($,(#177));
#88=EDGE_LOOP($,(#178));
#89=EDGE_LOOP($,(#179));
#90=EDGE_LOOP($,(#180));
#91=EDGE_LOOP($,(#181));
#92=EDGE_LOOP($,(#182));
#93=EDGE_LOOP($,(#183));
#94=EDGE_LOOP($,(#184));
#95=EDGE_LOOP($,(#185));
#96=EDGE_LOOP($,(#186));
#97=EDGE_LOOP($,(#187));
#98=EDGE_LOOP($,(#188));
#99=CIRCLE($,#230,38.2);
#100=CIRCLE($,#231,38.2);
#101=CIRCLE($,#233,37.95);
#102=CIRCLE($,#235,9.);
#103=CIRCLE($,#236,9.);
#104=CIRCLE($,#238,9.);
#105=CIRCLE($,#239,9.);
#106=CIRCLE($,#241,9.);
#107=CIRCLE($,#242,9.);
#108=CIRCLE($,#244,9.);
#109=CIRCLE($,#245,9.);
#110=CIRCLE($,#247,37.95);
#111=CIRCLE($,#249,92.5);
#112=CIRCLE($,#251,92.5);
#113=CIRCLE($,#255,36.05);
#114=CIRCLE($,#256,36.05);
#115=CIRCLE($,#258,38.05);
#116=CIRCLE($,#259,38.05);
#117=VERTEX_POINT($,#341);
#118=VERTEX_POINT($,#343);
#119=VERTEX_POINT($,#346);
#120=VERTEX_POINT($,#349);
#121=VERTEX_POINT($,#351);
#122=VERTEX_POINT($,#354);
#123=VERTEX_POINT($,#356);
#124=VERTEX_POINT($,#359);
#125=VERTEX_POINT($,#361);
#126=VERTEX_POINT($,#364);
#127=VERTEX_POINT($,#366);
#128=VERTEX_POINT($,#369);
#129=VERTEX_POINT($,#372);
#130=VERTEX_POINT($,#375);
#131=VERTEX_POINT($,#380);
#132=VERTEX_POINT($,#382);
#133=VERTEX_POINT($,#385);
#134=VERTEX_POINT($,#387);
#135=EDGE_CURVE($,#117,#117,#99,.T.);
#136=EDGE_CURVE($,#118,#118,#100,.T.);
#137=EDGE_CURVE($,#119,#119,#101,.T.);
#138=EDGE_CURVE($,#120,#120,#102,.T.);
#139=EDGE_CURVE($,#121,#121,#103,.T.);
#140=EDGE_CURVE($,#122,#122,#104,.T.);
#141=EDGE_CURVE($,#123,#123,#105,.T.);
#142=EDGE_CURVE($,#124,#124,#106,.T.);
#143=EDGE_CURVE($,#125,#125,#107,.T.);
#144=EDGE_CURVE($,#126,#126,#108,.T.);
#145=EDGE_CURVE($,#127,#127,#109,.T.);
#146=EDGE_CURVE($,#128,#128,#110,.T.);
#147=EDGE_CURVE($,#129,#129,#111,.T.);
#148=EDGE_CURVE($,#130,#130,#112,.T.);
#149=EDGE_CURVE($,#131,#131,#113,.T.);
#150=EDGE_CURVE($,#132,#132,#114,.T.);
#151=EDGE_CURVE($,#133,#133,#115,.T.);
#152=EDGE_CURVE($,#134,#134,#116,.T.);
#153=ORIENTED_EDGE($,*,*,#135,.F.);
#154=ORIENTED_EDGE($,*,*,#136,.F.);
#155=ORIENTED_EDGE($,*,*,#137,.T.);
#156=ORIENTED_EDGE($,*,*,#136,.T.);
#157=ORIENTED_EDGE($,*,*,#138,.F.);
#158=ORIENTED_EDGE($,*,*,#139,.F.);
#159=ORIENTED_EDGE($,*,*,#140,.F.);
#160=ORIENTED_EDGE($,*,*,#141,.F.);
#161=ORIENTED_EDGE($,*,*,#142,.F.);
#162=ORIENTED_EDGE($,*,*,#143,.F.);
#163=ORIENTED_EDGE($,*,*,#144,.F.);
#164=ORIENTED_EDGE($,*,*,#145,.F.);
#165=ORIENTED_EDGE($,*,*,#137,.F.);
#166=ORIENTED_EDGE($,*,*,#146,.T.);
#167=ORIENTED_EDGE($,*,*,#135,.T.);
#168=ORIENTED_EDGE($,*,*,#138,.T.);
#169=ORIENTED_EDGE($,*,*,#140,.T.);
#170=ORIENTED_EDGE($,*,*,#142,.T.);
#171=ORIENTED_EDGE($,*,*,#144,.T.);
#172=ORIENTED_EDGE($,*,*,#147,.F.);
#173=ORIENTED_EDGE($,*,*,#148,.F.);
#174=ORIENTED_EDGE($,*,*,#147,.T.);
#175=ORIENTED_EDGE($,*,*,#139,.T.);
#176=ORIENTED_EDGE($,*,*,#141,.T.);
#177=ORIENTED_EDGE($,*,*,#143,.T.);
#178=ORIENTED_EDGE($,*,*,#145,.T.);
#179=ORIENTED_EDGE($,*,*,#146,.F.);
#180=ORIENTED_EDGE($,*,*,#148,.T.);
#181=ORIENTED_EDGE($,*,*,#149,.F.);
#182=ORIENTED_EDGE($,*,*,#150,.F.);
#183=ORIENTED_EDGE($,*,*,#151,.T.);
#184=ORIENTED_EDGE($,*,*,#152,.F.);
#185=ORIENTED_EDGE($,*,*,#149,.T.);
#186=ORIENTED_EDGE($,*,*,#151,.F.);
#187=ORIENTED_EDGE($,*,*,#150,.T.);
#188=ORIENTED_EDGE($,*,*,#152,.T.);
#189=CYLINDRICAL_SURFACE($,#229,38.2);
#190=CYLINDRICAL_SURFACE($,#234,9.);
#191=CYLINDRICAL_SURFACE($,#237,9.);
#192=CYLINDRICAL_SURFACE($,#240,9.);
#193=CYLINDRICAL_SURFACE($,#243,9.);
#194=CYLINDRICAL_SURFACE($,#246,37.95);
#195=CYLINDRICAL_SURFACE($,#250,92.5);
#196=CYLINDRICAL_SURFACE($,#254,36.05);
#197=CYLINDRICAL_SURFACE($,#257,38.05);
#198=STYLED_ITEM($,(#430),#210);
#199=STYLED_ITEM($,(#430),#211);
#200=STYLED_ITEM($,(#430),#212);
#201=STYLED_ITEM($,(#430),#213);
#202=STYLED_ITEM($,(#430),#214);
#203=STYLED_ITEM($,(#430),#215);
#204=STYLED_ITEM($,(#430),#216);
#205=STYLED_ITEM($,(#430),#217);
#206=STYLED_ITEM($,(#430),#218);
#207=STYLED_ITEM($,(#430),#219);
#208=STYLED_ITEM($,(#430),#226);
#209=STYLED_ITEM($,(#430),#227);
#210=ADVANCED_FACE($,(#54,#27),#189,.F.);
#211=ADVANCED_FACE($,(#28,#29),#22,.T.);
#212=ADVANCED_FACE($,(#55,#30),#190,.F.);
#213=ADVANCED_FACE($,(#56,#31),#191,.F.);
#214=ADVANCED_FACE($,(#57,#32),#192,.F.);
#215=ADVANCED_FACE($,(#58,#33),#193,.F.);
#216=ADVANCED_FACE($,(#59,#34),#194,.F.);
#217=ADVANCED_FACE($,(#35,#36,#37,#38,#39,#40),#23,.T.);
#218=ADVANCED_FACE($,(#60,#41),#195,.T.);
#219=ADVANCED_FACE($,(#42,#43,#44,#45,#46,#47),#24,.T.);
#220=ADVANCED_FACE($,(#61,#48),#196,.F.);
#221=ADVANCED_FACE($,(#62,#49),#197,.T.);
#222=ADVANCED_FACE($,(#50,#51),#25,.F.);
#223=ADVANCED_FACE($,(#52,#53),#26,.T.);
#224=CLOSED_SHELL($,(#210,#211,#212,#213,#214,#215,#216,#217,#218,#219));
#225=CLOSED_SHELL($,(#220,#221,#222,#223));
#226=MANIFOLD_SOLID_BREP('Volumenk\X\F6rper1',#224);
#227=MANIFOLD_SOLID_BREP('Volumenk\X\F6rper1',#225);
#228=AXIS2_PLACEMENT_3D('placement',#339,#265,#266);
#229=AXIS2_PLACEMENT_3D($,#340,#267,#268);
#230=AXIS2_PLACEMENT_3D($,#342,#269,#270);
#231=AXIS2_PLACEMENT_3D($,#344,#271,#272);
#232=AXIS2_PLACEMENT_3D($,#345,#273,#274);
#233=AXIS2_PLACEMENT_3D($,#347,#275,#276);
#234=AXIS2_PLACEMENT_3D($,#348,#277,#278);
#235=AXIS2_PLACEMENT_3D($,#350,#279,#280);
#236=AXIS2_PLACEMENT_3D($,#352,#281,#282);
#237=AXIS2_PLACEMENT_3D($,#353,#283,#284);
#238=AXIS2_PLACEMENT_3D($,#355,#285,#286);
#239=AXIS2_PLACEMENT_3D($,#357,#287,#288);
#240=AXIS2_PLACEMENT_3D($,#358,#289,#290);
#241=AXIS2_PLACEMENT_3D($,#360,#291,#292);
#242=AXIS2_PLACEMENT_3D($,#362,#293,#294);
#243=AXIS2_PLACEMENT_3D($,#363,#295,#296);
#244=AXIS2_PLACEMENT_3D($,#365,#297,#298);
#245=AXIS2_PLACEMENT_3D($,#367,#299,#300);
#246=AXIS2_PLACEMENT_3D($,#368,#301,#302);
#247=AXIS2_PLACEMENT_3D($,#370,#303,#304);
#248=AXIS2_PLACEMENT_3D($,#371,#305,#306);
#249=AXIS2_PLACEMENT_3D($,#373,#307,#308);
#250=AXIS2_PLACEMENT_3D($,#374,#309,#310);
#251=AXIS2_PLACEMENT_3D($,#376,#311,#312);
#252=AXIS2_PLACEMENT_3D($,#377,#313,#314);
#253=AXIS2_PLACEMENT_3D('placement',#378,#315,#316);
#254=AXIS2_PLACEMENT_3D($,#379,#317,#318);
#255=AXIS2_PLACEMENT_3D($,#381,#319,#320);
#256=AXIS2_PLACEMENT_3D($,#383,#321,#322);
#257=AXIS2_PLACEMENT_3D($,#384,#323,#324);
#258=AXIS2_PLACEMENT_3D($,#386,#325,#326);
#259=AXIS2_PLACEMENT_3D($,#388,#327,#328);
#260=AXIS2_PLACEMENT_3D($,#389,#329,#330);
#261=AXIS2_PLACEMENT_3D($,#390,#331,#332);
#262=AXIS2_PLACEMENT_3D('placement',#391,#333,#334);
#263=AXIS2_PLACEMENT_3D($,#392,#335,#336);
#264=AXIS2_PLACEMENT_3D($,#393,#337,#338);
#265=DIRECTION('axis',(0.,0.,1.));
#266=DIRECTION('refdir',(1.,0.,0.));
#267=DIRECTION('center_axis',(-1.,-2.43119894409492E-016,0.));
#268=DIRECTION('ref_axis',(2.43119894409492E-016,-1.,0.));
#269=DIRECTION('center_axis',(1.,2.43119894409492E-016,0.));
#270=DIRECTION('ref_axis',(2.43119894409492E-016,-1.,0.));
#271=DIRECTION('center_axis',(-1.,-2.43119894409492E-016,0.));
#272=DIRECTION('ref_axis',(2.43119894409492E-016,-1.,0.));
#273=DIRECTION('center_axis',(-1.,-2.43119894409492E-016,0.));
#274=DIRECTION('ref_axis',(2.66453525910038E-016,-1.,0.));
#275=DIRECTION('center_axis',(1.,2.43119894409492E-016,0.));
#276=DIRECTION('ref_axis',(-2.40222471130133E-016,1.,0.));
#277=DIRECTION('center_axis',(-1.,6.04280477087505E-032,3.28954970259305E-016));
#278=DIRECTION('ref_axis',(0.,1.,-1.83697019872103E-016));
#279=DIRECTION('center_axis',(1.,2.43119894409492E-016,0.));
#280=DIRECTION('ref_axis',(0.,1.,-1.83697019872103E-016));
#281=DIRECTION('center_axis',(-1.,-2.43119894409492E-016,0.));
#282=DIRECTION('ref_axis',(0.,1.,-1.83697019872103E-016));
#283=DIRECTION('center_axis',(-1.,3.28954970259305E-016,-4.0285365139167E-032));
#284=DIRECTION('ref_axis',(0.,-1.22464679914735E-016,-1.));
#285=DIRECTION('center_axis',(1.,2.43119894409492E-016,0.));
#286=DIRECTION('ref_axis',(0.,-1.22464679914735E-016,-1.));
#287=DIRECTION('center_axis',(-1.,-2.43119894409492E-016,0.));
#288=DIRECTION('ref_axis',(0.,-1.22464679914735E-016,-1.));
#289=DIRECTION('center_axis',(-1.,-2.01426825695835E-032,-3.28954970259305E-016));
#290=DIRECTION('ref_axis',(0.,-1.,6.12323399573677E-017));
#291=DIRECTION('center_axis',(1.,2.43119894409492E-016,0.));
#292=DIRECTION('ref_axis',(0.,-1.,6.12323399573677E-017));
#293=DIRECTION('center_axis',(-1.,-2.43119894409492E-016,0.));
#294=DIRECTION('ref_axis',(0.,-1.,6.12323399573677E-017));
#295=DIRECTION('center_axis',(-1.,-3.28954970259305E-016,0.));
#296=DIRECTION('ref_axis',(0.,0.,1.));
#297=DIRECTION('center_axis',(1.,2.43119894409492E-016,0.));
#298=DIRECTION('ref_axis',(0.,0.,1.));
#299=DIRECTION('center_axis',(-1.,-2.43119894409492E-016,0.));
#300=DIRECTION('ref_axis',(0.,0.,1.));
#301=DIRECTION('center_axis',(1.,2.43119894409492E-016,0.));
#302=DIRECTION('ref_axis',(-2.40222471130133E-016,1.,0.));
#303=DIRECTION('center_axis',(1.,2.43119894409492E-016,0.));
#304=DIRECTION('ref_axis',(-2.40222471130133E-016,1.,0.));
#305=DIRECTION('center_axis',(-1.,-2.43119894409492E-016,0.));
#306=DIRECTION('ref_axis',(0.,0.,1.));
#307=DIRECTION('center_axis',(1.,2.43119894409492E-016,0.));
#308=DIRECTION('ref_axis',(-2.40222471130133E-016,1.,0.));
#309=DIRECTION('center_axis',(1.,2.43119894409492E-016,0.));
#310=DIRECTION('ref_axis',(-2.40222471130133E-016,1.,0.));
#311=DIRECTION('center_axis',(1.,2.43119894409492E-016,0.));
#312=DIRECTION('ref_axis',(-2.40222471130133E-016,1.,0.));
#313=DIRECTION('center_axis',(1.,2.43119894409492E-016,0.));
#314=DIRECTION('ref_axis',(0.,0.,-1.));
#315=DIRECTION('axis',(0.,0.,1.));
#316=DIRECTION('refdir',(1.,0.,0.));
#317=DIRECTION('center_axis',(0.,0.,1.));
#318=DIRECTION('ref_axis',(-1.,0.,0.));
#319=DIRECTION('center_axis',(0.,0.,-1.));
#320=DIRECTION('ref_axis',(-1.,0.,0.));
#321=DIRECTION('center_axis',(0.,0.,1.));
#322=DIRECTION('ref_axis',(-1.,0.,0.));
#323=DIRECTION('center_axis',(0.,0.,1.));
#324=DIRECTION('ref_axis',(-1.,0.,0.));
#325=DIRECTION('center_axis',(0.,0.,-1.));
#326=DIRECTION('ref_axis',(-1.,0.,0.));
#327=DIRECTION('center_axis',(0.,0.,-1.));
#328=DIRECTION('ref_axis',(-1.,0.,0.));
#329=DIRECTION('center_axis',(0.,0.,-1.));
#330=DIRECTION('ref_axis',(-1.,0.,0.));
#331=DIRECTION('center_axis',(0.,0.,-1.));
#332=DIRECTION('ref_axis',(-1.,0.,0.));
#333=DIRECTION('axis',(0.,0.,1.));
#334=DIRECTION('refdir',(1.,0.,0.));
#335=DIRECTION($,(0.,0.,1.));
#336=DIRECTION($,(1.,0.,0.));
#337=DIRECTION($,(1.,2.43119894409491E-016,1.10933564796705E-031));
#338=DIRECTION($,(-5.06572078375998E-017,0.208363071070923,-0.97805154803512));
#339=CARTESIAN_POINT('',(0.,0.,0.));
#340=CARTESIAN_POINT('Origin',(2.49999999999999,6.07799736023727E-016,0.));
#341=CARTESIAN_POINT('',(-5.00365448349698E-015,-38.2,0.));
#342=CARTESIAN_POINT('Origin',(-1.38777878078145E-014,-3.20474742746036E-030,
0.));
#343=CARTESIAN_POINT('',(4.99999999999999,-38.2,0.));
#344=CARTESIAN_POINT('Origin',(4.99999999999999,1.21559947204746E-015,0.));
#345=CARTESIAN_POINT('Origin',(4.99999999999999,1.21559947204746E-015,0.));
#346=CARTESIAN_POINT('',(4.99999999999997,37.95,0.));
#347=CARTESIAN_POINT('Origin',(4.99999999999998,1.21559947204746E-015,0.));
#348=CARTESIAN_POINT('Origin',(18.,-1.33180339407275E-014,-72.5));
#349=CARTESIAN_POINT('',(-3.5527136788005E-014,-9.00000000000001,-72.5));
#350=CARTESIAN_POINT('Origin',(-5.10702591327572E-014,-1.33180339407275E-014,
-72.5));
#351=CARTESIAN_POINT('',(18.,-9.00000000000001,-72.5));
#352=CARTESIAN_POINT('Origin',(17.9999999999999,-1.33180339407275E-014,
-72.5));
#353=CARTESIAN_POINT('Origin',(18.,-72.5,8.87868929381831E-015));
#354=CARTESIAN_POINT('',(-3.5527136788005E-014,-72.5,9.00000000000001));
#355=CARTESIAN_POINT('Origin',(-6.66133814775094E-014,-72.5,8.87868929381831E-015));
#356=CARTESIAN_POINT('',(18.,-72.5,9.00000000000001));
#357=CARTESIAN_POINT('Origin',(17.9999999999999,-72.5,8.87868929381831E-015));
#358=CARTESIAN_POINT('Origin',(18.,4.43934464690916E-015,72.5));
#359=CARTESIAN_POINT('',(-3.5527136788005E-014,9.00000000000001,72.5));
#360=CARTESIAN_POINT('Origin',(-5.10702591327572E-014,4.43934464690916E-015,
72.5));
#361=CARTESIAN_POINT('',(18.,9.00000000000001,72.5));
#362=CARTESIAN_POINT('Origin',(17.9999999999999,4.43934464690916E-015,72.5));
#363=CARTESIAN_POINT('Origin',(18.,72.5,0.));
#364=CARTESIAN_POINT('',(-3.5527136788005E-014,72.5,-9.));
#365=CARTESIAN_POINT('Origin',(-3.5527136788005E-014,72.5,0.));
#366=CARTESIAN_POINT('',(18.,72.5,-9.));
#367=CARTESIAN_POINT('Origin',(18.,72.5,0.));
#368=CARTESIAN_POINT('Origin',(11.5,2.79587878570916E-015,0.));
#369=CARTESIAN_POINT('',(18.,37.95,0.));
#370=CARTESIAN_POINT('Origin',(18.,4.37615809937086E-015,0.));
#371=CARTESIAN_POINT('Origin',(-2.55351295663786E-014,46.25,0.));
#372=CARTESIAN_POINT('',(-5.10702591327572E-014,92.5,0.));
#373=CARTESIAN_POINT('Origin',(-2.88657986402541E-014,-6.90253292068385E-030,
0.));
#374=CARTESIAN_POINT('Origin',(8.99999999999997,2.18807904968542E-015,0.));
#375=CARTESIAN_POINT('',(18.,92.5,0.));
#376=CARTESIAN_POINT('Origin',(18.,4.37615809937085E-015,0.));
#377=CARTESIAN_POINT('Origin',(18.,65.225,0.));
#378=CARTESIAN_POINT('',(0.,0.,0.));
#379=CARTESIAN_POINT('Origin',(0.,0.,0.));
#380=CARTESIAN_POINT('',(36.05,4.41485171092621E-015,113.));
#381=CARTESIAN_POINT('Origin',(0.,0.,113.));
#382=CARTESIAN_POINT('',(36.05,4.41485171092621E-015,0.));
#383=CARTESIAN_POINT('Origin',(0.,0.,0.));
#384=CARTESIAN_POINT('Origin',(0.,0.,0.));
#385=CARTESIAN_POINT('',(38.05,4.65978107075568E-015,113.));
#386=CARTESIAN_POINT('Origin',(0.,0.,113.));
#387=CARTESIAN_POINT('',(38.05,4.65978107075568E-015,0.));
#388=CARTESIAN_POINT('Origin',(0.,0.,0.));
#389=CARTESIAN_POINT('Origin',(0.,0.,113.));
#390=CARTESIAN_POINT('Origin',(0.,0.,0.));
#391=CARTESIAN_POINT('',(0.,0.,0.));
#392=CARTESIAN_POINT($,(0.,0.,0.));
#393=CARTESIAN_POINT($,(-108.,-1.32288182350284E-014,1.84537649113365E-014));
#394=UNCERTAINTY_MEASURE_WITH_UNIT(LENGTH_MEASURE(0.01),#400,
'DISTANCE_ACCURACY_VALUE',
'Maximum model space distance between geometric entities at asserted c
onnectivities');
#395=UNCERTAINTY_MEASURE_WITH_UNIT(LENGTH_MEASURE(0.01),#400,
'DISTANCE_ACCURACY_VALUE',
'Maximum model space distance between geometric entities at asserted c
onnectivities');
#396=UNCERTAINTY_MEASURE_WITH_UNIT(LENGTH_MEASURE(0.01),#400,
'DISTANCE_ACCURACY_VALUE',
'Maximum model space distance between geometric entities at asserted c
onnectivities');
#397=(
GEOMETRIC_REPRESENTATION_CONTEXT(3)
GLOBAL_UNCERTAINTY_ASSIGNED_CONTEXT((#394))
GLOBAL_UNIT_ASSIGNED_CONTEXT((#400,#403,#401))
REPRESENTATION_CONTEXT('','3D')
);
#398=(
GEOMETRIC_REPRESENTATION_CONTEXT(3)
GLOBAL_UNCERTAINTY_ASSIGNED_CONTEXT((#395))
GLOBAL_UNIT_ASSIGNED_CONTEXT((#400,#403,#401))
REPRESENTATION_CONTEXT('','3D')
);
#399=(
GEOMETRIC_REPRESENTATION_CONTEXT(3)
GLOBAL_UNCERTAINTY_ASSIGNED_CONTEXT((#396))
GLOBAL_UNIT_ASSIGNED_CONTEXT((#400,#403,#401))
REPRESENTATION_CONTEXT('','3D')
);
#400=(
LENGTH_UNIT()
NAMED_UNIT(*)
SI_UNIT(.MILLI.,.METRE.)
);
#401=(
NAMED_UNIT(*)
SI_UNIT($,.STERADIAN.)
SOLID_ANGLE_UNIT()
);
#402=DIMENSIONAL_EXPONENTS(0.,0.,0.,0.,0.,0.,0.);
#403=(
CONVERSION_BASED_UNIT('degree',#405)
NAMED_UNIT(#402)
PLANE_ANGLE_UNIT()
);
#404=(
NAMED_UNIT(*)
PLANE_ANGLE_UNIT()
SI_UNIT($,.RADIAN.)
);
#405=PLANE_ANGLE_MEASURE_WITH_UNIT(PLANE_ANGLE_MEASURE(0.01745329252),#404);
#406=SHAPE_DEFINITION_REPRESENTATION(#409,#414);
#407=SHAPE_DEFINITION_REPRESENTATION(#410,#415);
#408=SHAPE_DEFINITION_REPRESENTATION(#411,#416);
#409=PRODUCT_DEFINITION_SHAPE('',$,#418);
#410=PRODUCT_DEFINITION_SHAPE('',$,#419);
#411=PRODUCT_DEFINITION_SHAPE('',$,#420);
#412=PRODUCT_DEFINITION_SHAPE($,$,#16);
#413=PRODUCT_DEFINITION_SHAPE($,$,#17);
#414=SHAPE_REPRESENTATION('',(#228),#397);
#415=SHAPE_REPRESENTATION('',(#253),#398);
#416=SHAPE_REPRESENTATION('',(#262,#263,#264),#399);
#417=PRODUCT_DEFINITION_CONTEXT('3D Mechanical Parts',#425,'design');
#418=PRODUCT_DEFINITION('100195','100195',#421,#417);
#419=PRODUCT_DEFINITION('MAP Rohrende d76,1 L113',
'MAP Rohrende d76,1 L113',#422,#417);
#420=PRODUCT_DEFINITION('33729','33729',#423,#417);
#421=PRODUCT_DEFINITION_FORMATION('',$,#427);
#422=PRODUCT_DEFINITION_FORMATION('',$,#428);
#423=PRODUCT_DEFINITION_FORMATION('',$,#429);
#424=APPLICATION_PROTOCOL_DEFINITION('international standard',
'automotive_design',2009,#425);
#425=APPLICATION_CONTEXT(
'Core Data for Automotive Mechanical Design Process');
#426=PRODUCT_CONTEXT('3D Mechanical Parts',#425,'mechanical');
#427=PRODUCT('100195','100195',$,(#426));
#428=PRODUCT('MAP Rohrende d76,1 L113','MAP Rohrende d76,1 L113',$,(#426));
#429=PRODUCT('33729','33729',$,(#426));
#430=PRESENTATION_STYLE_ASSIGNMENT((#431));
#431=SURFACE_STYLE_USAGE(.BOTH.,#432);
#432=SURFACE_SIDE_STYLE($,(#433));
#433=SURFACE_STYLE_FILL_AREA(#434);
#434=FILL_AREA_STYLE($,(#435));
#435=FILL_AREA_STYLE_COLOUR($,#436);
#436=COLOUR_RGB('',1.,1.,1.);
ENDSEC;
END-ISO-10303-21;
