ISO-10303-21;
HEADER;
/****************************************************************
 * Generated by software with PDE/Lib inside                    *
 * PDElib Version v51a, created Thu 12/14/2006                  *
 * International Technegroup Inc. (www.iti-oh.com)              *
 ****************************************************************/
FILE_DESCRIPTION((''),'2;1');
FILE_NAME('T:\\Arbeitspl\S\dtze\\Aushilfe\\KPeters\\3D\\Steps 08_10\\7030\\70300032X.stp','2010-09-07T08:25:40',('thilbrands'),(''),'Autodesk Inventor 2008','Autodesk Inventor 2008','');
FILE_SCHEMA(('AUTOMOTIVE_DESIGN { 1 0 10303 214 1 1 1 1 }'));
ENDSEC;
DATA;
#5=APPLICATION_CONTEXT('automotive design');
#6=APPLICATION_PROTOCOL_DEFINITION('International Standard','automotive_design',2001,#5);
#7=PRODUCT_CONTEXT('',#5,'mechanical');
#8=PRODUCT('703000251','703000251',$,(#7));
#9=PRODUCT_RELATED_PRODUCT_CATEGORY('part',$,(#8));
#10=PRODUCT_DEFINITION_FORMATION('',$,#8);
#11=PRODUCT_DEFINITION_CONTEXT('part definition',#5,'design');
#12=PRODUCT_DEFINITION('',$,#10,#11);
#18=(NAMED_UNIT(*)PLANE_ANGLE_UNIT()SI_UNIT($,.RADIAN.));
#19=DIMENSIONAL_EXPONENTS(0.0,0.0,0.0,0.0,0.0,0.0,0.0);
#20=PLANE_ANGLE_MEASURE_WITH_UNIT(PLANE_ANGLE_MEASURE(0.017453292500000),#18);
#24=(CONVERSION_BASED_UNIT('DEGREE',#20)NAMED_UNIT(#19)PLANE_ANGLE_UNIT());
#28=(NAMED_UNIT(*)SI_UNIT($,.STERADIAN.)SOLID_ANGLE_UNIT());
#32=(LENGTH_UNIT()NAMED_UNIT(*)SI_UNIT(.MILLI.,.METRE.));
#34=UNCERTAINTY_MEASURE_WITH_UNIT(LENGTH_MEASURE(0.010000000000000),#32,'DISTANCE_ACCURACY_VALUE','');
#36=(GEOMETRIC_REPRESENTATION_CONTEXT(3)GLOBAL_UNCERTAINTY_ASSIGNED_CONTEXT((#34))GLOBAL_UNIT_ASSIGNED_CONTEXT((#24,#28,#32))REPRESENTATION_CONTEXT('None','None'));
#37=AXIS2_PLACEMENT_3D('',#38,#39,#40);
#38=CARTESIAN_POINT('',(0.0,0.0,0.0));
#39=DIRECTION('',(0.0,0.0,1.0));
#40=DIRECTION('',(1.0,0.0,0.0));
#41=SHAPE_REPRESENTATION('',(#37),#36);
#42=PRODUCT_DEFINITION_SHAPE('','',#12);
#43=SHAPE_DEFINITION_REPRESENTATION(#42,#41);
#49=(NAMED_UNIT(*)PLANE_ANGLE_UNIT()SI_UNIT($,.RADIAN.));
#50=DIMENSIONAL_EXPONENTS(0.0,0.0,0.0,0.0,0.0,0.0,0.0);
#51=PLANE_ANGLE_MEASURE_WITH_UNIT(PLANE_ANGLE_MEASURE(0.017453292500000),#49);
#55=(CONVERSION_BASED_UNIT('DEGREE',#51)NAMED_UNIT(#50)PLANE_ANGLE_UNIT());
#59=(NAMED_UNIT(*)SI_UNIT($,.STERADIAN.)SOLID_ANGLE_UNIT());
#63=(LENGTH_UNIT()NAMED_UNIT(*)SI_UNIT(.MILLI.,.METRE.));
#65=UNCERTAINTY_MEASURE_WITH_UNIT(LENGTH_MEASURE(0.000001000000000),#63,'DISTANCE_ACCURACY_VALUE','');
#67=(GEOMETRIC_REPRESENTATION_CONTEXT(3)GLOBAL_UNCERTAINTY_ASSIGNED_CONTEXT((#65))GLOBAL_UNIT_ASSIGNED_CONTEXT((#55,#59,#63))REPRESENTATION_CONTEXT('','3D'));
#68=CARTESIAN_POINT('',(-6.423377087426227,-9.992007E-014,0.0));
#69=DIRECTION('',(1.0,1.279857E-014,0.0));
#70=DIRECTION('',(0.0,0.0,-1.0));
#71=AXIS2_PLACEMENT_3D('',#68,#69,#70);
#72=TOROIDAL_SURFACE('',#71,13.600000000000074,3.400000000000000);
#73=CARTESIAN_POINT('',(-3.343610174568139,15.040498442367575,0.0));
#74=VERTEX_POINT('',#73);
#75=CARTESIAN_POINT('',(-3.343610174567947,-6.144019E-014,0.0));
#76=DIRECTION('',(1.0,0.0,0.0));
#77=DIRECTION('',(0.0,1.0,0.0));
#78=AXIS2_PLACEMENT_3D('',#75,#76,#77);
#79=CIRCLE('',#78,15.040498442367639);
#80=EDGE_CURVE('',#74,#74,#79,.T.);
#81=ORIENTED_EDGE('',*,*,#80,.F.);
#82=EDGE_LOOP('',(#81));
#83=FACE_OUTER_BOUND('',#82,.T.);
#84=CARTESIAN_POINT('',(-6.423377087426401,16.999999999999979,0.0));
#85=VERTEX_POINT('',#84);
#86=CARTESIAN_POINT('',(-6.423377087426183,-1.008568E-013,0.0));
#87=DIRECTION('',(1.0,0.0,0.0));
#88=DIRECTION('',(0.0,1.0,0.0));
#89=AXIS2_PLACEMENT_3D('',#86,#87,#88);
#90=CIRCLE('',#89,17.000000000000078);
#91=EDGE_CURVE('',#85,#85,#90,.T.);
#92=ORIENTED_EDGE('',*,*,#91,.T.);
#93=EDGE_LOOP('',(#92));
#94=FACE_BOUND('',#93,.T.);
#95=ADVANCED_FACE('',(#83,#94),#72,.T.);
#96=CARTESIAN_POINT('',(-35.499999999999993,-2.516801E-014,0.0));
#97=DIRECTION('',(0.0,0.0,1.0));
#98=DIRECTION('',(1.0,0.0,0.0));
#99=AXIS2_PLACEMENT_3D('',#96,#97,#98);
#100=SPHERICAL_SURFACE('',#99,35.500000000000441);
#101=ORIENTED_EDGE('',*,*,#80,.T.);
#102=EDGE_LOOP('',(#101));
#103=FACE_OUTER_BOUND('',#102,.T.);
#104=ADVANCED_FACE('',(#103),#100,.T.);
#105=CARTESIAN_POINT('',(-7.603046360186326,-13.048233649493261,-14.404984423676069));
#106=CARTESIAN_POINT('',(-1.499999999999659,-15.902809669139856,0.0));
#107=CARTESIAN_POINT('',(-7.603046360186326,-13.048233649493261,14.404984423676069));
#108=CARTESIAN_POINT('',(-1.499999999999446,-7.283063E-014,-14.404984423676069));
#109=CARTESIAN_POINT('',(5.938216334496925,-8.348877E-014,0.0));
#110=CARTESIAN_POINT('',(-1.499999999999446,-7.283063E-014,14.404984423676069));
#111=CARTESIAN_POINT('',(-7.603046360186287,13.048233649493129,-14.404984423676069));
#112=CARTESIAN_POINT('',(-1.499999999999613,15.902809669139705,0.0));
#113=CARTESIAN_POINT('',(-7.603046360186287,13.048233649493129,14.404984423676069));
#121=(BOUNDED_SURFACE()B_SPLINE_SURFACE(2,2,((#105,#108,#111),(#106,#109,#112),(#107,#110,#113)),.UNSPECIFIED.,.F.,.F.,.U.)B_SPLINE_SURFACE_WITH_KNOTS((3,3),(3,3),(-0.437499729808821,0.437499729808821),(0.0,0.874999459617653),.UNSPECIFIED.)GEOMETRIC_REPRESENTATION_ITEM()RATIONAL_B_SPLINE_SURFACE(((1.0,0.905813797899488,1.0),(0.905813797899492,0.820498636465098,0.905813797899492),(1.0,0.905813797899488,1.0)))REPRESENTATION_ITEM('')SURFACE());
#122=CARTESIAN_POINT('',(-4.702330871417365,14.404984423675987,0.0));
#123=VERTEX_POINT('',#122);
#124=CARTESIAN_POINT('',(-4.702330871417180,-7.882987E-014,0.0));
#125=DIRECTION('',(1.0,0.0,0.0));
#126=DIRECTION('',(0.0,1.0,0.0));
#127=AXIS2_PLACEMENT_3D('',#124,#125,#126);
#128=CIRCLE('',#127,14.404984423676069);
#129=EDGE_CURVE('',#123,#123,#128,.T.);
#130=ORIENTED_EDGE('',*,*,#129,.F.);
#131=EDGE_LOOP('',(#130));
#132=FACE_OUTER_BOUND('',#131,.T.);
#133=ADVANCED_FACE('',(#132),#121,.T.);
#134=CARTESIAN_POINT('',(-6.423377087426598,-1.018182E-013,15.500000000000083));
#135=CARTESIAN_POINT('',(-4.523377087426217,-7.750093E-014,15.500000000000453));
#136=CARTESIAN_POINT('',(-4.523377087426217,-7.726826E-014,13.600000000000074));
#137=CARTESIAN_POINT('',(-4.523377087426217,-7.703558E-014,11.699999999999694));
#138=CARTESIAN_POINT('',(-6.423377087426598,-1.013529E-013,11.700000000000065));
#139=CARTESIAN_POINT('',(-6.423377087426400,-15.500000000000181,15.500000000000078));
#140=CARTESIAN_POINT('',(-4.523377087426019,-15.500000000000529,15.500000000000449));
#141=CARTESIAN_POINT('',(-4.523377087426043,-13.600000000000149,13.600000000000067));
#142=CARTESIAN_POINT('',(-4.523377087426067,-11.699999999999770,11.699999999999690));
#143=CARTESIAN_POINT('',(-6.423377087426448,-11.700000000000164,11.700000000000061));
#144=CARTESIAN_POINT('',(-6.423377087426400,-15.500000000000183,-1.898140E-015));
#145=CARTESIAN_POINT('',(-4.523377087426019,-15.500000000000531,-1.898140E-015));
#146=CARTESIAN_POINT('',(-4.523377087426043,-13.600000000000151,-1.665465E-015));
#147=CARTESIAN_POINT('',(-4.523377087426067,-11.699999999999772,-1.432789E-015));
#148=CARTESIAN_POINT('',(-6.423377087426448,-11.700000000000164,-1.432789E-015));
#149=CARTESIAN_POINT('',(-6.423377087426400,-15.500000000000178,-15.500000000000082));
#150=CARTESIAN_POINT('',(-4.523377087426019,-15.500000000000526,-15.500000000000453));
#151=CARTESIAN_POINT('',(-4.523377087426043,-13.600000000000145,-13.600000000000072));
#152=CARTESIAN_POINT('',(-4.523377087426067,-11.699999999999767,-11.699999999999694));
#153=CARTESIAN_POINT('',(-6.423377087426448,-11.700000000000163,-11.700000000000063));
#154=CARTESIAN_POINT('',(-6.423377087426598,-9.802193E-014,-15.500000000000083));
#155=CARTESIAN_POINT('',(-4.523377087426217,-7.370465E-014,-15.500000000000453));
#156=CARTESIAN_POINT('',(-4.523377087426217,-7.393733E-014,-13.600000000000074));
#157=CARTESIAN_POINT('',(-4.523377087426217,-7.417000E-014,-11.699999999999694));
#158=CARTESIAN_POINT('',(-6.423377087426598,-9.848728E-014,-11.700000000000065));
#159=CARTESIAN_POINT('',(-6.423377087426795,15.499999999999984,-15.500000000000078));
#160=CARTESIAN_POINT('',(-4.523377087426415,15.500000000000377,-15.500000000000449));
#161=CARTESIAN_POINT('',(-4.523377087426391,13.599999999999994,-13.600000000000067));
#162=CARTESIAN_POINT('',(-4.523377087426368,11.699999999999617,-11.699999999999690));
#163=CARTESIAN_POINT('',(-6.423377087426748,11.699999999999966,-11.700000000000061));
#164=CARTESIAN_POINT('',(-6.423377087426796,15.499999999999984,1.898140E-015));
#165=CARTESIAN_POINT('',(-4.523377087426415,15.500000000000378,1.898140E-015));
#166=CARTESIAN_POINT('',(-4.523377087426391,13.599999999999998,1.665465E-015));
#167=CARTESIAN_POINT('',(-4.523377087426368,11.699999999999617,1.432789E-015));
#168=CARTESIAN_POINT('',(-6.423377087426748,11.699999999999966,1.432789E-015));
#169=CARTESIAN_POINT('',(-6.423377087426795,15.499999999999979,15.500000000000082));
#170=CARTESIAN_POINT('',(-4.523377087426415,15.500000000000373,15.500000000000453));
#171=CARTESIAN_POINT('',(-4.523377087426391,13.599999999999993,13.600000000000072));
#172=CARTESIAN_POINT('',(-4.523377087426368,11.699999999999614,11.699999999999694));
#173=CARTESIAN_POINT('',(-6.423377087426748,11.699999999999960,11.700000000000063));
#174=CARTESIAN_POINT('',(-6.423377087426598,-1.018182E-013,15.500000000000083));
#175=CARTESIAN_POINT('',(-4.523377087426217,-7.750093E-014,15.500000000000453));
#176=CARTESIAN_POINT('',(-4.523377087426217,-7.726826E-014,13.600000000000074));
#177=CARTESIAN_POINT('',(-4.523377087426217,-7.703558E-014,11.699999999999694));
#178=CARTESIAN_POINT('',(-6.423377087426598,-1.013529E-013,11.700000000000065));
#186=(BOUNDED_SURFACE()B_SPLINE_SURFACE(2,2,((#134,#139,#144,#149,#154,#159,#164,#169,#174),(#135,#140,#145,#150,#155,#160,#165,#170,#175),(#136,#141,#146,#151,#156,#161,#166,#171,#176),(#137,#142,#147,#152,#157,#162,#167,#172,#177),(#138,#143,#148,#153,#158,#163,#168,#173,#178)),.UNSPECIFIED.,.F.,.T.,.U.)B_SPLINE_SURFACE_WITH_KNOTS((3,2,3),(3,2,2,2,3),(-1.955645E-013,1.570796326794897,3.141592653589989),(0.0,1.570796326794897,3.141592653589793,4.712388980384690,6.283185307179586),.UNSPECIFIED.)GEOMETRIC_REPRESENTATION_ITEM()RATIONAL_B_SPLINE_SURFACE(((1.0,0.707106781186548,1.0,0.707106781186548,1.0,0.707106781186548,1.0,0.707106781186548,1.0),(0.707106781186477,0.499999999999950,0.707106781186477,0.499999999999950,0.707106781186477,0.499999999999950,0.707106781186477,0.499999999999950,0.707106781186477),(1.0,0.707106781186548,1.0,0.707106781186548,1.0,0.707106781186548,1.0,0.707106781186548,1.0),(0.707106781186479,0.499999999999951,0.707106781186479,0.499999999999951,0.707106781186479,0.499999999999951,0.707106781186479,0.499999999999951,0.707106781186479),(1.0,0.707106781186548,1.0,0.707106781186548,1.0,0.707106781186548,1.0,0.707106781186548,1.0)))REPRESENTATION_ITEM('')SURFACE());
#187=CARTESIAN_POINT('',(-6.423377087426401,15.499999999999982,0.0));
#188=VERTEX_POINT('',#187);
#189=CARTESIAN_POINT('',(-6.423377087426202,-1.008568E-013,0.0));
#190=DIRECTION('',(1.0,0.0,0.0));
#191=DIRECTION('',(0.0,1.0,0.0));
#192=AXIS2_PLACEMENT_3D('',#189,#190,#191);
#193=CIRCLE('',#192,15.500000000000082);
#194=EDGE_CURVE('',#188,#188,#193,.T.);
#195=ORIENTED_EDGE('',*,*,#194,.F.);
#196=EDGE_LOOP('',(#195));
#197=FACE_OUTER_BOUND('',#196,.T.);
#198=ORIENTED_EDGE('',*,*,#129,.T.);
#199=EDGE_LOOP('',(#198));
#200=FACE_BOUND('',#199,.T.);
#201=ADVANCED_FACE('',(#197,#200),#186,.T.);
#202=CARTESIAN_POINT('',(-9.711688543713002,-1.429425E-013,0.0));
#203=DIRECTION('',(1.0,1.279857E-014,0.0));
#204=DIRECTION('',(0.0,1.0,0.0));
#205=AXIS2_PLACEMENT_3D('',#202,#203,#204);
#206=CYLINDRICAL_SURFACE('',#205,15.500000000000123);
#207=CARTESIAN_POINT('',(-13.0,15.499999999999980,0.0));
#208=VERTEX_POINT('',#207);
#209=CARTESIAN_POINT('',(-12.999999999999803,-1.850282E-013,0.0));
#210=DIRECTION('',(1.0,0.0,0.0));
#211=DIRECTION('',(0.0,1.0,0.0));
#212=AXIS2_PLACEMENT_3D('',#209,#210,#211);
#213=CIRCLE('',#212,15.500000000000165);
#214=EDGE_CURVE('',#208,#208,#213,.T.);
#215=ORIENTED_EDGE('',*,*,#214,.F.);
#216=EDGE_LOOP('',(#215));
#217=FACE_OUTER_BOUND('',#216,.T.);
#218=ORIENTED_EDGE('',*,*,#194,.T.);
#219=EDGE_LOOP('',(#218));
#220=FACE_BOUND('',#219,.T.);
#221=ADVANCED_FACE('',(#217,#220),#206,.F.);
#222=CARTESIAN_POINT('',(-13.0,16.249999999999979,0.0));
#223=DIRECTION('',(-1.0,0.0,0.0));
#224=DIRECTION('',(0.0,0.0,1.0));
#225=AXIS2_PLACEMENT_3D('',#222,#223,#224);
#226=PLANE('',#225);
#227=CARTESIAN_POINT('',(-13.0,16.999999999999975,0.0));
#228=VERTEX_POINT('',#227);
#229=CARTESIAN_POINT('',(-12.999999999999783,-1.850282E-013,0.0));
#230=DIRECTION('',(1.0,0.0,0.0));
#231=DIRECTION('',(0.0,1.0,0.0));
#232=AXIS2_PLACEMENT_3D('',#229,#230,#231);
#233=CIRCLE('',#232,17.000000000000160);
#234=EDGE_CURVE('',#228,#228,#233,.T.);
#235=ORIENTED_EDGE('',*,*,#234,.F.);
#236=EDGE_LOOP('',(#235));
#237=FACE_OUTER_BOUND('',#236,.T.);
#238=ORIENTED_EDGE('',*,*,#214,.T.);
#239=EDGE_LOOP('',(#238));
#240=FACE_BOUND('',#239,.T.);
#241=ADVANCED_FACE('',(#237,#240),#226,.T.);
#242=CARTESIAN_POINT('',(-9.711688543712983,-1.429425E-013,0.0));
#243=DIRECTION('',(1.0,1.279857E-014,0.0));
#244=DIRECTION('',(0.0,1.0,0.0));
#245=AXIS2_PLACEMENT_3D('',#242,#243,#244);
#246=CYLINDRICAL_SURFACE('',#245,17.000000000000117);
#247=ORIENTED_EDGE('',*,*,#91,.F.);
#248=EDGE_LOOP('',(#247));
#249=FACE_OUTER_BOUND('',#248,.T.);
#250=ORIENTED_EDGE('',*,*,#234,.T.);
#251=EDGE_LOOP('',(#250));
#252=FACE_BOUND('',#251,.T.);
#253=ADVANCED_FACE('',(#249,#252),#246,.T.);
#254=CLOSED_SHELL('',(#95,#104,#133,#201,#221,#241,#253));
#255=MANIFOLD_SOLID_BREP('',#254);
#256=COLOUR_RGB('Metall - Stahl',0.639216005802155,0.639216005802155,0.686275005340576);
#257=FILL_AREA_STYLE_COLOUR('Metall - Stahl',#256);
#258=FILL_AREA_STYLE('Metall - Stahl',(#257));
#259=SURFACE_STYLE_FILL_AREA(#258);
#260=SURFACE_SIDE_STYLE('Metall - Stahl',(#259));
#261=SURFACE_STYLE_USAGE(.BOTH.,#260);
#262=PRESENTATION_STYLE_ASSIGNMENT((#261));
#263=STYLED_ITEM('',(#262),#255);
#264=MECHANICAL_DESIGN_GEOMETRIC_PRESENTATION_REPRESENTATION('',(#263),#36);
#265=ADVANCED_BREP_SHAPE_REPRESENTATION('ABSR',(#255),#36);
#266=SHAPE_REPRESENTATION_RELATIONSHIP('SRR','None',#265,#41);
ENDSEC;
END-ISO-10303-21;
