ISO-10303-21;
HEADER;
FILE_DESCRIPTION (( 'STEP AP214' ),
    '1' );
FILE_NAME ('DT30 63.5.STEP',
    '2014-02-12T08:49:22',
    ( '' ),
    ( '' ),
    'SwSTEP 2.0',
    'SolidWorks 2013',
    '' );
FILE_SCHEMA (( 'AUTOMOTIVE_DESIGN' ));
ENDSEC;

DATA;
#1 = ORIENTED_EDGE ( 'NONE', *, *, #5, .F. ) ;
#2 = SURFACE_STYLE_USAGE ( .BOTH. , #348 ) ;
#3 = EDGE_LOOP ( 'NONE', ( #25, #176, #229, #155 ) ) ;
#4 = DIRECTION ( 'NONE',  ( 0.0000000000000000000, 0.0000000000000000000, 1.000000000000000000 ) ) ;
#5 = EDGE_CURVE ( 'NONE', #255, #193, #39, .T. ) ;
#6 =( NAMED_UNIT ( * ) SI_UNIT ( $, .STERADIAN. ) SOLID_ANGLE_UNIT ( ) );
#7 = FILL_AREA_STYLE ('',( #328 ) ) ;
#8 = DIRECTION ( 'NONE',  ( -0.0000000000000000000, 1.000000000000000000, -0.0000000000000000000 ) ) ;
#9 = DIRECTION ( 'NONE',  ( -0.0000000000000000000, 1.000000000000000000, -0.0000000000000000000 ) ) ;
#10 = ORIENTED_EDGE ( 'NONE', *, *, #195, .F. ) ;
#11 = AXIS2_PLACEMENT_3D ( 'NONE', #103, #68, #98 ) ;
#12 = DIRECTION ( 'NONE',  ( -0.0000000000000000000, 1.000000000000000000, -0.0000000000000000000 ) ) ;
#13 = SURFACE_STYLE_FILL_AREA ( #7 ) ;
#14 = ORIENTED_EDGE ( 'NONE', *, *, #336, .T. ) ;
#15 = CARTESIAN_POINT ( 'NONE',  ( 0.0000000000000000000, 38.10000000000000100, 31.75000000000000000 ) ) ;
#16 =( GEOMETRIC_REPRESENTATION_CONTEXT ( 3 ) GLOBAL_UNCERTAINTY_ASSIGNED_CONTEXT ( ( #199 ) ) GLOBAL_UNIT_ASSIGNED_CONTEXT ( ( #352, #294, #6 ) ) REPRESENTATION_CONTEXT ( 'NONE', 'WORKASPACE' ) );
#17 = STYLED_ITEM ( 'NONE', ( #268 ), #310 ) ;
#18 = TOROIDAL_SURFACE ( 'NONE', #257, 22.63840991484256900, 9.385102194555109600 ) ;
#19 = DIRECTION ( 'NONE',  ( -0.0000000000000000000, 1.000000000000000000, -0.0000000000000000000 ) ) ;
#20 = ADVANCED_FACE ( 'NONE', ( #234 ), #221, .F. ) ;
#21 = CIRCLE ( 'NONE', #286, 30.10000000000000100 ) ;
#22 = DIRECTION ( 'NONE',  ( 0.0000000000000000000, 0.0000000000000000000, 1.000000000000000000 ) ) ;
#23 = EDGE_CURVE ( 'NONE', #345, #265, #95, .T. ) ;
#24 = FACE_OUTER_BOUND ( 'NONE', #136, .T. ) ;
#25 = ORIENTED_EDGE ( 'NONE', *, *, #313, .F. ) ;
#26 = CARTESIAN_POINT ( 'NONE',  ( 1.924542295018488400E-016, -17.92826290830861100, -1.571508043264743500 ) ) ;
#27 = EDGE_CURVE ( 'NONE', #193, #62, #349, .T. ) ;
#28 = DIRECTION ( 'NONE',  ( 0.0000000000000000000, 0.0000000000000000000, 1.000000000000000000 ) ) ;
#29 = TOROIDAL_SURFACE ( 'NONE', #263, 22.63840991484256900, 7.735102194555108400 ) ;
#30 = CYLINDRICAL_SURFACE ( 'NONE', #211, 31.75000000000000000 ) ;
#31 = ADVANCED_FACE ( 'NONE', ( #316 ), #367, .F. ) ;
#32 = EDGE_CURVE ( 'NONE', #132, #355, #164, .T. ) ;
#33 = CARTESIAN_POINT ( 'NONE',  ( 0.0000000000000000000, 37.88950705720720400, 0.0000000000000000000 ) ) ;
#34 = EDGE_CURVE ( 'NONE', #355, #317, #213, .T. ) ;
#35 = ORIENTED_EDGE ( 'NONE', *, *, #177, .T. ) ;
#36 = CARTESIAN_POINT ( 'NONE',  ( 3.686186865433533300E-015, 0.0000000000000000000, -30.10000000000000100 ) ) ;
#37 = STYLED_ITEM ( 'NONE', ( #363 ), #54 ) ;
#38 =( NAMED_UNIT ( * ) PLANE_ANGLE_UNIT ( ) SI_UNIT ( $, .RADIAN. ) );
#39 = CIRCLE ( 'NONE', #11, 31.75000000000000000 ) ;
#40 = PRESENTATION_LAYER_ASSIGNMENT (  '', '', ( #17 ) ) ;
#41 = DIRECTION ( 'NONE',  ( 0.0000000000000000000, 0.0000000000000000000, 1.000000000000000000 ) ) ;
#42 = FACE_OUTER_BOUND ( 'NONE', #46, .T. ) ;
#43 = ORIENTED_EDGE ( 'NONE', *, *, #173, .T. ) ;
#44 = AXIS2_PLACEMENT_3D ( 'NONE', #330, #308, #280 ) ;
#45 = DIRECTION ( 'NONE',  ( 0.0000000000000000000, 0.0000000000000000000, 1.000000000000000000 ) ) ;
#46 = EDGE_LOOP ( 'NONE', ( #301, #288, #223 ) ) ;
#47 = DIRECTION ( 'NONE',  ( 0.0000000000000000000, 0.0000000000000000000, 1.000000000000000000 ) ) ;
#48 = AXIS2_PLACEMENT_3D ( 'NONE', #303, #243, #246 ) ;
#49 = CIRCLE ( 'NONE', #362, 67.04668273699590500 ) ;
#50 = DIRECTION ( 'NONE',  ( 0.0000000000000000000, 0.0000000000000000000, 1.000000000000000000 ) ) ;
#51 = ORIENTED_EDGE ( 'NONE', *, *, #32, .F. ) ;
#52 = EDGE_CURVE ( 'NONE', #312, #96, #130, .T. ) ;
#53 = CARTESIAN_POINT ( 'NONE',  ( 0.0000000000000000000, 0.0000000000000000000, 0.0000000000000000000 ) ) ;
#54 = ADVANCED_BREP_SHAPE_REPRESENTATION ( 'DT30 63.5', ( #310, #327 ), #16 ) ;
#55 = MECHANICAL_DESIGN_GEOMETRIC_PRESENTATION_REPRESENTATION (  '', ( #37 ), #183 ) ;
#56 = VECTOR ( 'NONE', #227, 1000.000000000000000 ) ;
#57 = ORIENTED_EDGE ( 'NONE', *, *, #357, .F. ) ;
#58 = DIRECTION ( 'NONE',  ( 0.0000000000000000000, 0.0000000000000000000, 1.000000000000000000 ) ) ;
#59 = AXIS2_PLACEMENT_3D ( 'NONE', #244, #207, #297 ) ;
#60 = ADVANCED_FACE ( 'NONE', ( #344 ), #30, .T. ) ;
#61 = CARTESIAN_POINT ( 'NONE',  ( 3.351538270285643300E-015, 43.95735983876495800, -27.36738684671462400 ) ) ;
#62 = VERTEX_POINT ( 'NONE', #15 ) ;
#63 = ORIENTED_EDGE ( 'NONE', *, *, #313, .T. ) ;
#64 = DIRECTION ( 'NONE',  ( -0.0000000000000000000, 1.000000000000000000, -0.0000000000000000000 ) ) ;
#65 = ORIENTED_EDGE ( 'NONE', *, *, #173, .F. ) ;
#66 =( NAMED_UNIT ( * ) PLANE_ANGLE_UNIT ( ) SI_UNIT ( $, .RADIAN. ) );
#67 = ORIENTED_EDGE ( 'NONE', *, *, #115, .F. ) ;
#68 = DIRECTION ( 'NONE',  ( -0.0000000000000000000, 1.000000000000000000, -0.0000000000000000000 ) ) ;
#69 = CARTESIAN_POINT ( 'NONE',  ( 0.0000000000000000000, 0.0000000000000000000, 0.0000000000000000000 ) ) ;
#70 = APPLICATION_CONTEXT ( 'automotive_design' ) ;
#71 = ORIENTED_EDGE ( 'NONE', *, *, #331, .T. ) ;
#72 = ORIENTED_EDGE ( 'NONE', *, *, #93, .T. ) ;
#73 = AXIS2_PLACEMENT_3D ( 'NONE', #291, #165, #320 ) ;
#74 = EDGE_LOOP ( 'NONE', ( #276, #80 ) ) ;
#75 = CARTESIAN_POINT ( 'NONE',  ( 2.772405623999765800E-015, 35.85076250202341400, -22.63840991484256900 ) ) ;
#76 = DIRECTION ( 'NONE',  ( 0.0000000000000000000, 0.0000000000000000000, 1.000000000000000000 ) ) ;
#77 = EDGE_CURVE ( 'NONE', #96, #372, #158, .T. ) ;
#78 = TOROIDAL_SURFACE ( 'NONE', #335, 22.63840991484256900, 7.735102194555108400 ) ;
#79 = EDGE_LOOP ( 'NONE', ( #262, #131, #339 ) ) ;
#80 = ORIENTED_EDGE ( 'NONE', *, *, #23, .T. ) ;
#81 = EDGE_CURVE ( 'NONE', #355, #126, #292, .T. ) ;
#82 = ADVANCED_FACE ( 'NONE', ( #239 ), #83, .T. ) ;
#83 = CYLINDRICAL_SURFACE ( 'NONE', #217, 31.75000000000000000 ) ;
#84 = ORIENTED_EDGE ( 'NONE', *, *, #147, .T. ) ;
#85 = DIRECTION ( 'NONE',  ( -0.0000000000000000000, 1.000000000000000000, -0.0000000000000000000 ) ) ;
#86 = CARTESIAN_POINT ( 'NONE',  ( 0.0000000000000000000, -17.92826290830861100, 1.571508043264743500 ) ) ;
#87 = CARTESIAN_POINT ( 'NONE',  ( 0.0000000000000000000, -17.92826290830861100, 0.0000000000000000000 ) ) ;
#88 = ORIENTED_EDGE ( 'NONE', *, *, #147, .F. ) ;
#89 = ORIENTED_EDGE ( 'NONE', *, *, #275, .T. ) ;
#90 = CARTESIAN_POINT ( 'NONE',  ( 0.0000000000000000000, 47.44953512338753400, 0.0000000000000000000 ) ) ;
#91 = EDGE_CURVE ( 'NONE', #284, #372, #108, .T. ) ;
#92 = DIRECTION ( 'NONE',  ( 0.0000000000000000000, 0.0000000000000000000, 1.000000000000000000 ) ) ;
#93 = EDGE_CURVE ( 'NONE', #62, #317, #270, .T. ) ;
#94 = CARTESIAN_POINT ( 'NONE',  ( 0.0000000000000000000, 0.0000000000000000000, 0.0000000000000000000 ) ) ;
#95 = CIRCLE ( 'NONE', #48, 30.10000000000000100 ) ;
#96 = VERTEX_POINT ( 'NONE', #215 ) ;
#97 = CARTESIAN_POINT ( 'NONE',  ( 3.260826782574597400E-015, 42.47839984745932200, -26.62667133776785300 ) ) ;
#98 = DIRECTION ( 'NONE',  ( 0.0000000000000000000, 0.0000000000000000000, 1.000000000000000000 ) ) ;
#99 =( NAMED_UNIT ( * ) SI_UNIT ( $, .STERADIAN. ) SOLID_ANGLE_UNIT ( ) );
#100 = CIRCLE ( 'NONE', #290, 31.75000000000000000 ) ;
#101 = AXIS2_PLACEMENT_3D ( 'NONE', #326, #324, #4 ) ;
#102 = ORIENTED_EDGE ( 'NONE', *, *, #336, .F. ) ;
#103 = CARTESIAN_POINT ( 'NONE',  ( 0.0000000000000000000, 0.0000000000000000000, 0.0000000000000000000 ) ) ;
#104 = EDGE_CURVE ( 'NONE', #317, #126, #49, .T. ) ;
#105 = CIRCLE ( 'NONE', #129, 65.39668273699591300 ) ;
#106 = ORIENTED_EDGE ( 'NONE', *, *, #91, .F. ) ;
#107 = FACE_OUTER_BOUND ( 'NONE', #235, .T. ) ;
#108 = CIRCLE ( 'NONE', #111, 7.735102194555108400 ) ;
#109 = CARTESIAN_POINT ( 'NONE',  ( 3.888253587292846500E-015, 38.10000000000000100, -31.75000000000000000 ) ) ;
#110 = DIRECTION ( 'NONE',  ( -1.000000000000000000, 0.0000000000000000000, 0.0000000000000000000 ) ) ;
#111 = AXIS2_PLACEMENT_3D ( 'NONE', #75, #160, #251 ) ;
#112 = DIRECTION ( 'NONE',  ( -0.0000000000000000000, 1.000000000000000000, -0.0000000000000000000 ) ) ;
#113 = FACE_OUTER_BOUND ( 'NONE', #293, .T. ) ;
#114 = ORIENTED_EDGE ( 'NONE', *, *, #357, .T. ) ;
#115 = EDGE_CURVE ( 'NONE', #255, #132, #188, .T. ) ;
#116 = CARTESIAN_POINT ( 'NONE',  ( 3.686186865433533300E-015, 0.0000000000000000000, -30.10000000000000100 ) ) ;
#117 = CARTESIAN_POINT ( 'NONE',  ( 0.0000000000000000000, 0.0000000000000000000, 30.10000000000000100 ) ) ;
#118 = ADVANCED_FACE ( 'NONE', ( #119, #202 ), #365, .F. ) ;
#119 = FACE_BOUND ( 'NONE', #74, .T. ) ;
#120 = AXIS2_PLACEMENT_3D ( 'NONE', #329, #178, #353 ) ;
#121 = CARTESIAN_POINT ( 'NONE',  ( 0.0000000000000000000, 35.85076250202341400, 0.0000000000000000000 ) ) ;
#122 = DIRECTION ( 'NONE',  ( 0.0000000000000000000, 0.0000000000000000000, -1.000000000000000000 ) ) ;
#123 = EDGE_LOOP ( 'NONE', ( #102, #1 ) ) ;
#124 = CARTESIAN_POINT ( 'NONE',  ( 0.0000000000000000000, 0.0000000000000000000, 0.0000000000000000000 ) ) ;
#125 = DIRECTION ( 'NONE',  ( 0.0000000000000000000, 0.0000000000000000000, 1.000000000000000000 ) ) ;
#126 = VERTEX_POINT ( 'NONE', #194 ) ;
#127 = CARTESIAN_POINT ( 'NONE',  ( 0.0000000000000000000, -17.92826290830861100, 0.0000000000000000000 ) ) ;
#128 = LINE ( 'NONE', #321, #145 ) ;
#129 = AXIS2_PLACEMENT_3D ( 'NONE', #86, #231, #197 ) ;
#130 = CIRCLE ( 'NONE', #171, 7.735102194555108400 ) ;
#131 = ORIENTED_EDGE ( 'NONE', *, *, #195, .T. ) ;
#132 = VERTEX_POINT ( 'NONE', #109 ) ;
#133 = DIRECTION ( 'NONE',  ( -0.0000000000000000000, 1.000000000000000000, -0.0000000000000000000 ) ) ;
#134 = AXIS2_PLACEMENT_3D ( 'NONE', #127, #8, #152 ) ;
#135 = EDGE_CURVE ( 'NONE', #265, #345, #274, .T. ) ;
#136 = EDGE_LOOP ( 'NONE', ( #114, #364, #65, #249 ) ) ;
#137 = ADVANCED_FACE ( 'NONE', ( #24 ), #261, .T. ) ;
#138 = AXIS2_PLACEMENT_3D ( 'NONE', #282, #222, #50 ) ;
#139 = CARTESIAN_POINT ( 'NONE',  ( 3.686186865433533300E-015, 37.88950705720720400, -30.10000000000000100 ) ) ;
#140 = TOROIDAL_SURFACE ( 'NONE', #247, 1.571508043264743500, 67.04668273699590500 ) ;
#141 = ORIENTED_EDGE ( 'NONE', *, *, #27, .F. ) ;
#142 = CARTESIAN_POINT ( 'NONE',  ( 0.0000000000000000000, 35.85076250202341400, 0.0000000000000000000 ) ) ;
#143 = DIRECTION ( 'NONE',  ( 0.0000000000000000000, 0.0000000000000000000, 1.000000000000000000 ) ) ;
#144 = CARTESIAN_POINT ( 'NONE',  ( 3.888253587292846500E-015, 0.0000000000000000000, -31.75000000000000000 ) ) ;
#145 = VECTOR ( 'NONE', #370, 1000.000000000000000 ) ;
#146 = EDGE_LOOP ( 'NONE', ( #10, #166, #35 ) ) ;
#147 = EDGE_CURVE ( 'NONE', #132, #62, #180, .T. ) ;
#148 = FILL_AREA_STYLE_COLOUR ( '', #206 ) ;
#149 = DIRECTION ( 'NONE',  ( 0.0000000000000000000, 0.0000000000000000000, 1.000000000000000000 ) ) ;
#150 = ORIENTED_EDGE ( 'NONE', *, *, #27, .T. ) ;
#151 = DIRECTION ( 'NONE',  ( 1.000000000000000000, 0.0000000000000000000, 0.0000000000000000000 ) ) ;
#152 = DIRECTION ( 'NONE',  ( 0.0000000000000000000, 0.0000000000000000000, 1.000000000000000000 ) ) ;
#153 = AXIS2_PLACEMENT_3D ( 'NONE', #26, #289, #318 ) ;
#154 = COLOUR_RGB ( '',0.7921568627450980000, 0.8196078431372548800, 0.9333333333333333500 ) ;
#155 = ORIENTED_EDGE ( 'NONE', *, *, #52, .F. ) ;
#156 = PRODUCT_CONTEXT ( 'NONE', #70, 'mechanical' ) ;
#157 = AXIS2_PLACEMENT_3D ( 'NONE', #179, #205, #209 ) ;
#158 = CIRCLE ( 'NONE', #44, 26.62667133776784200 ) ;
#159 = EDGE_LOOP ( 'NONE', ( #43, #333, #250 ) ) ;
#160 = DIRECTION ( 'NONE',  ( 1.000000000000000000, 0.0000000000000000000, 1.224646799147353200E-016 ) ) ;
#161 = CARTESIAN_POINT ( 'NONE',  ( 0.0000000000000000000, 35.85076250202341400, 0.0000000000000000000 ) ) ;
#162 = AXIS2_PLACEMENT_3D ( 'NONE', #219, #216, #278 ) ;
#163 = FACE_OUTER_BOUND ( 'NONE', #214, .T. ) ;
#164 = CIRCLE ( 'NONE', #157, 9.385102194555107900 ) ;
#165 = DIRECTION ( 'NONE',  ( -0.0000000000000000000, 1.000000000000000000, -0.0000000000000000000 ) ) ;
#166 = ORIENTED_EDGE ( 'NONE', *, *, #77, .F. ) ;
#167 = CARTESIAN_POINT ( 'NONE',  ( 0.0000000000000000000, 43.95735983876495800, 0.0000000000000000000 ) ) ;
#168 = ADVANCED_FACE ( 'NONE', ( #42 ), #175, .T. ) ;
#169 = DIRECTION ( 'NONE',  ( -0.0000000000000000000, 1.000000000000000000, -0.0000000000000000000 ) ) ;
#170 = ORIENTED_EDGE ( 'NONE', *, *, #34, .F. ) ;
#171 = AXIS2_PLACEMENT_3D ( 'NONE', #358, #181, #212 ) ;
#172 = CARTESIAN_POINT ( 'NONE',  ( 0.0000000000000000000, 37.88950705720720400, 30.10000000000000100 ) ) ;
#173 = EDGE_CURVE ( 'NONE', #317, #355, #332, .T. ) ;
#174 =( LENGTH_UNIT ( ) NAMED_UNIT ( * ) SI_UNIT ( .MILLI., .METRE. ) );
#175 = TOROIDAL_SURFACE ( 'NONE', #347, 1.571508043264743500, 67.04668273699590500 ) ;
#176 = ORIENTED_EDGE ( 'NONE', *, *, #91, .T. ) ;
#177 = EDGE_CURVE ( 'NONE', #96, #203, #105, .T. ) ;
#178 = DIRECTION ( 'NONE',  ( -0.0000000000000000000, 1.000000000000000000, -0.0000000000000000000 ) ) ;
#179 = CARTESIAN_POINT ( 'NONE',  ( 2.772405623999765800E-015, 35.85076250202341400, -22.63840991484256900 ) ) ;
#180 = CIRCLE ( 'NONE', #138, 31.75000000000000000 ) ;
#181 = DIRECTION ( 'NONE',  ( -1.000000000000000000, 0.0000000000000000000, 0.0000000000000000000 ) ) ;
#182 = SURFACE_STYLE_USAGE ( .BOTH. , #273 ) ;
#183 =( GEOMETRIC_REPRESENTATION_CONTEXT ( 3 ) GLOBAL_UNCERTAINTY_ASSIGNED_CONTEXT ( ( #302 ) ) GLOBAL_UNIT_ASSIGNED_CONTEXT ( ( #248, #38, #210 ) ) REPRESENTATION_CONTEXT ( 'NONE', 'WORKASPACE' ) );
#184 = CIRCLE ( 'NONE', #153, 65.39668273699591300 ) ;
#185 = CARTESIAN_POINT ( 'NONE',  ( 0.0000000000000000000, 0.0000000000000000000, 0.0000000000000000000 ) ) ;
#186 = ORIENTED_EDGE ( 'NONE', *, *, #77, .T. ) ;
#187 = CARTESIAN_POINT ( 'NONE',  ( 3.888253587292846500E-015, 0.0000000000000000000, -31.75000000000000000 ) ) ;
#188 = LINE ( 'NONE', #187, #192 ) ;
#189 = EDGE_LOOP ( 'NONE', ( #14, #322, #57, #141 ) ) ;
#190 =( GEOMETRIC_REPRESENTATION_CONTEXT ( 3 ) GLOBAL_UNCERTAINTY_ASSIGNED_CONTEXT ( ( #269 ) ) GLOBAL_UNIT_ASSIGNED_CONTEXT ( ( #174, #66, #99 ) ) REPRESENTATION_CONTEXT ( 'NONE', 'WORKASPACE' ) );
#191 = DIRECTION ( 'NONE',  ( 0.0000000000000000000, 0.0000000000000000000, 1.000000000000000000 ) ) ;
#192 = VECTOR ( 'NONE', #133, 1000.000000000000000 ) ;
#193 = VERTEX_POINT ( 'NONE', #375 ) ;
#194 = CARTESIAN_POINT ( 'NONE',  ( 6.288372600415925700E-015, 49.09999999999999400, 0.0000000000000000000 ) ) ;
#195 = EDGE_CURVE ( 'NONE', #372, #203, #184, .T. ) ;
#196 = ADVANCED_FACE ( 'NONE', ( #113 ), #78, .F. ) ;
#197 = DIRECTION ( 'NONE',  ( 0.0000000000000000000, 0.0000000000000000000, 1.000000000000000000 ) ) ;
#198 = EDGE_LOOP ( 'NONE', ( #281, #218, #63, #368 ) ) ;
#199 = UNCERTAINTY_MEASURE_WITH_UNIT (LENGTH_MEASURE( 1.000000000000000100E-005 ), #352, 'distance_accuracy_value', 'NONE');
#200 = ADVANCED_FACE ( 'NONE', ( #228 ), #140, .T. ) ;
#201 = CLOSED_SHELL ( 'NONE', ( #259, #285, #31, #82, #137, #200, #118, #168, #371, #60, #20, #196, #225 ) ) ;
#202 = FACE_OUTER_BOUND ( 'NONE', #123, .T. ) ;
#203 = VERTEX_POINT ( 'NONE', #90 ) ;
#204 = FILL_AREA_STYLE ('',( #148 ) ) ;
#205 = DIRECTION ( 'NONE',  ( 1.000000000000000000, 0.0000000000000000000, 1.224646799147353200E-016 ) ) ;
#206 = COLOUR_RGB ( '',0.7921568627450980000, 0.8196078431372548800, 0.9333333333333333500 ) ;
#207 = DIRECTION ( 'NONE',  ( 0.0000000000000000000, 1.000000000000000000, 0.0000000000000000000 ) ) ;
#208 = ORIENTED_EDGE ( 'NONE', *, *, #135, .F. ) ;
#209 = DIRECTION ( 'NONE',  ( 1.224646799147353000E-016, 0.0000000000000000000, -1.000000000000000000 ) ) ;
#210 =( NAMED_UNIT ( * ) SI_UNIT ( $, .STERADIAN. ) SOLID_ANGLE_UNIT ( ) );
#211 = AXIS2_PLACEMENT_3D ( 'NONE', #69, #9, #41 ) ;
#212 = DIRECTION ( 'NONE',  ( 0.0000000000000000000, 0.0000000000000000000, 1.000000000000000000 ) ) ;
#213 = CIRCLE ( 'NONE', #120, 27.36738684671462000 ) ;
#214 = EDGE_LOOP ( 'NONE', ( #51, #84, #72, #170 ) ) ;
#215 = CARTESIAN_POINT ( 'NONE',  ( 0.0000000000000000000, 42.47839984745932200, 26.62667133776785300 ) ) ;
#216 = DIRECTION ( 'NONE',  ( 1.000000000000000000, 0.0000000000000000000, 1.224646799147353200E-016 ) ) ;
#217 = AXIS2_PLACEMENT_3D ( 'NONE', #185, #12, #45 ) ;
#218 = ORIENTED_EDGE ( 'NONE', *, *, #237, .T. ) ;
#219 = CARTESIAN_POINT ( 'NONE',  ( 1.924542295018488400E-016, -17.92826290830861100, -1.571508043264743500 ) ) ;
#220 = DIRECTION ( 'NONE',  ( -0.0000000000000000000, 1.000000000000000000, 0.0000000000000000000 ) ) ;
#221 = TOROIDAL_SURFACE ( 'NONE', #134, 1.571508043264743500, 65.39668273699591300 ) ;
#222 = DIRECTION ( 'NONE',  ( -0.0000000000000000000, 1.000000000000000000, -0.0000000000000000000 ) ) ;
#223 = ORIENTED_EDGE ( 'NONE', *, *, #104, .T. ) ;
#224 = PRODUCT_DEFINITION ( 'UNKNOWN', '', #373, #256 ) ;
#225 = ADVANCED_FACE ( 'NONE', ( #107 ), #343, .F. ) ;
#226 = PRODUCT_DEFINITION_SHAPE ( 'NONE', 'NONE',  #224 ) ;
#227 = DIRECTION ( 'NONE',  ( -0.0000000000000000000, 1.000000000000000000, -0.0000000000000000000 ) ) ;
#228 = FACE_OUTER_BOUND ( 'NONE', #159, .T. ) ;
#229 = ORIENTED_EDGE ( 'NONE', *, *, #295, .T. ) ;
#230 = DIRECTION ( 'NONE',  ( -0.0000000000000000000, 1.000000000000000000, -0.0000000000000000000 ) ) ;
#231 = DIRECTION ( 'NONE',  ( -1.000000000000000000, 0.0000000000000000000, 0.0000000000000000000 ) ) ;
#232 = AXIS2_PLACEMENT_3D ( 'NONE', #238, #242, #122 ) ;
#233 = DIRECTION ( 'NONE',  ( 0.0000000000000000000, 0.0000000000000000000, 1.000000000000000000 ) ) ;
#234 = FACE_OUTER_BOUND ( 'NONE', #146, .T. ) ;
#235 = EDGE_LOOP ( 'NONE', ( #309, #208, #89, #71 ) ) ;
#236 = DIRECTION ( 'NONE',  ( 0.0000000000000000000, 0.0000000000000000000, -1.000000000000000000 ) ) ;
#237 = EDGE_CURVE ( 'NONE', #345, #284, #376, .T. ) ;
#238 = CARTESIAN_POINT ( 'NONE',  ( 0.0000000000000000000, 37.88950705720720400, 0.0000000000000000000 ) ) ;
#239 = FACE_OUTER_BOUND ( 'NONE', #189, .T. ) ;
#240 = ORIENTED_EDGE ( 'NONE', *, *, #52, .T. ) ;
#241 = AXIS2_PLACEMENT_3D ( 'NONE', #161, #314, #22 ) ;
#242 = DIRECTION ( 'NONE',  ( -0.0000000000000000000, 1.000000000000000000, -0.0000000000000000000 ) ) ;
#243 = DIRECTION ( 'NONE',  ( -0.0000000000000000000, 1.000000000000000000, -0.0000000000000000000 ) ) ;
#244 = CARTESIAN_POINT ( 'NONE',  ( 0.0000000000000000000, 42.47839984745932900, 0.0000000000000000000 ) ) ;
#245 = CIRCLE ( 'NONE', #254, 31.75000000000000000 ) ;
#246 = DIRECTION ( 'NONE',  ( 0.0000000000000000000, 0.0000000000000000000, 1.000000000000000000 ) ) ;
#247 = AXIS2_PLACEMENT_3D ( 'NONE', #87, #258, #28 ) ;
#248 =( LENGTH_UNIT ( ) NAMED_UNIT ( * ) SI_UNIT ( .MILLI., .METRE. ) );
#249 = ORIENTED_EDGE ( 'NONE', *, *, #93, .F. ) ;
#250 = ORIENTED_EDGE ( 'NONE', *, *, #104, .F. ) ;
#251 = DIRECTION ( 'NONE',  ( 1.224646799147353500E-016, 0.0000000000000000000, -1.000000000000000000 ) ) ;
#252 = CIRCLE ( 'NONE', #232, 30.10000000000000100 ) ;
#253 = DIRECTION ( 'NONE',  ( -1.000000000000000000, 0.0000000000000000000, 0.0000000000000000000 ) ) ;
#254 = AXIS2_PLACEMENT_3D ( 'NONE', #299, #264, #92 ) ;
#255 = VERTEX_POINT ( 'NONE', #144 ) ;
#256 = PRODUCT_DEFINITION_CONTEXT ( 'detailed design', #271, 'design' ) ;
#257 = AXIS2_PLACEMENT_3D ( 'NONE', #296, #267, #125 ) ;
#258 = DIRECTION ( 'NONE',  ( -0.0000000000000000000, 1.000000000000000000, -0.0000000000000000000 ) ) ;
#259 = ADVANCED_FACE ( 'NONE', ( #359 ), #366, .F. ) ;
#260 = DIRECTION ( 'NONE',  ( 0.0000000000000000000, 0.0000000000000000000, 1.000000000000000000 ) ) ;
#261 = TOROIDAL_SURFACE ( 'NONE', #241, 22.63840991484256900, 9.385102194555109600 ) ;
#262 = ORIENTED_EDGE ( 'NONE', *, *, #295, .F. ) ;
#263 = AXIS2_PLACEMENT_3D ( 'NONE', #121, #287, #58 ) ;
#264 = DIRECTION ( 'NONE',  ( -0.0000000000000000000, 1.000000000000000000, -0.0000000000000000000 ) ) ;
#265 = VERTEX_POINT ( 'NONE', #117 ) ;
#266 = DIRECTION ( 'NONE',  ( 0.0000000000000000000, 0.0000000000000000000, 1.000000000000000000 ) ) ;
#267 = DIRECTION ( 'NONE',  ( -0.0000000000000000000, 1.000000000000000000, -0.0000000000000000000 ) ) ;
#268 = PRESENTATION_STYLE_ASSIGNMENT (( #2 ) ) ;
#269 = UNCERTAINTY_MEASURE_WITH_UNIT (LENGTH_MEASURE( 1.000000000000000100E-005 ), #174, 'distance_accuracy_value', 'NONE');
#270 = CIRCLE ( 'NONE', #279, 9.385102194555107900 ) ;
#271 = APPLICATION_CONTEXT ( 'automotive_design' ) ;
#272 = PRESENTATION_LAYER_ASSIGNMENT (  '', '', ( #37 ) ) ;
#273 = SURFACE_SIDE_STYLE ('',( #13 ) ) ;
#274 = CIRCLE ( 'NONE', #340, 30.10000000000000100 ) ;
#275 = EDGE_CURVE ( 'NONE', #265, #312, #128, .T. ) ;
#276 = ORIENTED_EDGE ( 'NONE', *, *, #135, .T. ) ;
#277 = APPLICATION_PROTOCOL_DEFINITION ( 'draft international standard', 'automotive_design', 1998, #271 ) ;
#278 = DIRECTION ( 'NONE',  ( 1.224646799147353200E-016, 0.0000000000000000000, -1.000000000000000000 ) ) ;
#279 = AXIS2_PLACEMENT_3D ( 'NONE', #369, #253, #341 ) ;
#280 = DIRECTION ( 'NONE',  ( 0.0000000000000000000, 0.0000000000000000000, 1.000000000000000000 ) ) ;
#281 = ORIENTED_EDGE ( 'NONE', *, *, #23, .F. ) ;
#282 = CARTESIAN_POINT ( 'NONE',  ( 0.0000000000000000000, 38.10000000000000100, 0.0000000000000000000 ) ) ;
#283 = DIRECTION ( 'NONE',  ( 0.0000000000000000000, 0.0000000000000000000, 1.000000000000000000 ) ) ;
#284 = VERTEX_POINT ( 'NONE', #139 ) ;
#285 = ADVANCED_FACE ( 'NONE', ( #300 ), #29, .F. ) ;
#286 = AXIS2_PLACEMENT_3D ( 'NONE', #33, #64, #236 ) ;
#287 = DIRECTION ( 'NONE',  ( -0.0000000000000000000, 1.000000000000000000, -0.0000000000000000000 ) ) ;
#288 = ORIENTED_EDGE ( 'NONE', *, *, #34, .T. ) ;
#289 = DIRECTION ( 'NONE',  ( 1.000000000000000000, 0.0000000000000000000, 1.224646799147353200E-016 ) ) ;
#290 = AXIS2_PLACEMENT_3D ( 'NONE', #94, #323, #149 ) ;
#291 = CARTESIAN_POINT ( 'NONE',  ( 0.0000000000000000000, 0.0000000000000000000, 0.0000000000000000000 ) ) ;
#292 = CIRCLE ( 'NONE', #162, 67.04668273699590500 ) ;
#293 = EDGE_LOOP ( 'NONE', ( #106, #350, #240, #186 ) ) ;
#294 =( NAMED_UNIT ( * ) PLANE_ANGLE_UNIT ( ) SI_UNIT ( $, .RADIAN. ) );
#295 = EDGE_CURVE ( 'NONE', #372, #96, #354, .T. ) ;
#296 = CARTESIAN_POINT ( 'NONE',  ( 0.0000000000000000000, 35.85076250202341400, 0.0000000000000000000 ) ) ;
#297 = DIRECTION ( 'NONE',  ( 0.0000000000000000000, 0.0000000000000000000, 1.000000000000000000 ) ) ;
#298 = MECHANICAL_DESIGN_GEOMETRIC_PRESENTATION_REPRESENTATION (  '', ( #17 ), #190 ) ;
#299 = CARTESIAN_POINT ( 'NONE',  ( 0.0000000000000000000, 38.10000000000000100, 0.0000000000000000000 ) ) ;
#300 = FACE_OUTER_BOUND ( 'NONE', #3, .T. ) ;
#301 = ORIENTED_EDGE ( 'NONE', *, *, #81, .F. ) ;
#302 = UNCERTAINTY_MEASURE_WITH_UNIT (LENGTH_MEASURE( 1.000000000000000100E-005 ), #248, 'distance_accuracy_value', 'NONE');
#303 = CARTESIAN_POINT ( 'NONE',  ( 0.0000000000000000000, 0.0000000000000000000, 0.0000000000000000000 ) ) ;
#304 = DIRECTION ( 'NONE',  ( -0.0000000000000000000, 1.000000000000000000, -0.0000000000000000000 ) ) ;
#305 = ORIENTED_EDGE ( 'NONE', *, *, #5, .T. ) ;
#306 = PRODUCT_RELATED_PRODUCT_CATEGORY ( 'part', '', ( #334 ) ) ;
#307 = SHAPE_DEFINITION_REPRESENTATION ( #226, #54 ) ;
#308 = DIRECTION ( 'NONE',  ( 0.0000000000000000000, 1.000000000000000000, 0.0000000000000000000 ) ) ;
#309 = ORIENTED_EDGE ( 'NONE', *, *, #237, .F. ) ;
#310 = MANIFOLD_SOLID_BREP ( 'Shell1', #201 ) ;
#311 = CARTESIAN_POINT ( 'NONE',  ( 0.0000000000000000000, -17.92826290830861100, 0.0000000000000000000 ) ) ;
#312 = VERTEX_POINT ( 'NONE', #172 ) ;
#313 = EDGE_CURVE ( 'NONE', #284, #312, #252, .T. ) ;
#314 = DIRECTION ( 'NONE',  ( -0.0000000000000000000, 1.000000000000000000, -0.0000000000000000000 ) ) ;
#315 = SURFACE_STYLE_FILL_AREA ( #204 ) ;
#316 = FACE_OUTER_BOUND ( 'NONE', #79, .T. ) ;
#317 = VERTEX_POINT ( 'NONE', #346 ) ;
#318 = DIRECTION ( 'NONE',  ( 1.224646799147353000E-016, 0.0000000000000000000, -1.000000000000000000 ) ) ;
#319 = AXIS2_PLACEMENT_3D ( 'NONE', #338, #220, #191 ) ;
#320 = DIRECTION ( 'NONE',  ( 0.0000000000000000000, 0.0000000000000000000, 1.000000000000000000 ) ) ;
#321 = CARTESIAN_POINT ( 'NONE',  ( 0.0000000000000000000, 0.0000000000000000000, 30.10000000000000100 ) ) ;
#322 = ORIENTED_EDGE ( 'NONE', *, *, #115, .T. ) ;
#323 = DIRECTION ( 'NONE',  ( -0.0000000000000000000, 1.000000000000000000, -0.0000000000000000000 ) ) ;
#324 = DIRECTION ( 'NONE',  ( -0.0000000000000000000, 1.000000000000000000, -0.0000000000000000000 ) ) ;
#325 = APPLICATION_PROTOCOL_DEFINITION ( 'draft international standard', 'automotive_design', 1998, #70 ) ;
#326 = CARTESIAN_POINT ( 'NONE',  ( 0.0000000000000000000, -17.92826290830861100, 0.0000000000000000000 ) ) ;
#327 = AXIS2_PLACEMENT_3D ( 'NONE', #124, #266, #151 ) ;
#328 = FILL_AREA_STYLE_COLOUR ( '', #154 ) ;
#329 = CARTESIAN_POINT ( 'NONE',  ( 0.0000000000000000000, 43.95735983876495800, 0.0000000000000000000 ) ) ;
#330 = CARTESIAN_POINT ( 'NONE',  ( 0.0000000000000000000, 42.47839984745932900, 0.0000000000000000000 ) ) ;
#331 = EDGE_CURVE ( 'NONE', #312, #284, #21, .T. ) ;
#332 = CIRCLE ( 'NONE', #374, 27.36738684671462000 ) ;
#333 = ORIENTED_EDGE ( 'NONE', *, *, #81, .T. ) ;
#334 = PRODUCT ( 'DT30 63.5', 'DT30 63.5', '', ( #156 ) ) ;
#335 = AXIS2_PLACEMENT_3D ( 'NONE', #142, #169, #260 ) ;
#336 = EDGE_CURVE ( 'NONE', #193, #255, #100, .T. ) ;
#337 = CARTESIAN_POINT ( 'NONE',  ( 0.0000000000000000000, -17.92826290830861100, 1.571508043264743500 ) ) ;
#338 = CARTESIAN_POINT ( 'NONE',  ( 0.0000000000000000000, 0.0000000000000000000, 0.0000000000000000000 ) ) ;
#339 = ORIENTED_EDGE ( 'NONE', *, *, #177, .F. ) ;
#340 = AXIS2_PLACEMENT_3D ( 'NONE', #53, #19, #283 ) ;
#341 = DIRECTION ( 'NONE',  ( 0.0000000000000000000, 0.0000000000000000000, 1.000000000000000000 ) ) ;
#342 = CARTESIAN_POINT ( 'NONE',  ( 0.0000000000000000000, 0.0000000000000000000, 0.0000000000000000000 ) ) ;
#343 = CYLINDRICAL_SURFACE ( 'NONE', #73, 30.10000000000000100 ) ;
#344 = FACE_OUTER_BOUND ( 'NONE', #361, .T. ) ;
#345 = VERTEX_POINT ( 'NONE', #36 ) ;
#346 = CARTESIAN_POINT ( 'NONE',  ( 0.0000000000000000000, 43.95735983876495800, 27.36738684671462400 ) ) ;
#347 = AXIS2_PLACEMENT_3D ( 'NONE', #311, #112, #47 ) ;
#348 = SURFACE_SIDE_STYLE ('',( #315 ) ) ;
#349 = LINE ( 'NONE', #356, #360 ) ;
#350 = ORIENTED_EDGE ( 'NONE', *, *, #331, .F. ) ;
#351 = AXIS2_PLACEMENT_3D ( 'NONE', #342, #85, #233 ) ;
#352 =( LENGTH_UNIT ( ) NAMED_UNIT ( * ) SI_UNIT ( .MILLI., .METRE. ) );
#353 = DIRECTION ( 'NONE',  ( 0.0000000000000000000, 0.0000000000000000000, 1.000000000000000000 ) ) ;
#354 = CIRCLE ( 'NONE', #59, 26.62667133776784200 ) ;
#355 = VERTEX_POINT ( 'NONE', #61 ) ;
#356 = CARTESIAN_POINT ( 'NONE',  ( 0.0000000000000000000, 0.0000000000000000000, 31.75000000000000000 ) ) ;
#357 = EDGE_CURVE ( 'NONE', #62, #132, #245, .T. ) ;
#358 = CARTESIAN_POINT ( 'NONE',  ( 0.0000000000000000000, 35.85076250202341400, 22.63840991484256900 ) ) ;
#359 = FACE_OUTER_BOUND ( 'NONE', #198, .T. ) ;
#360 = VECTOR ( 'NONE', #304, 1000.000000000000000 ) ;
#361 = EDGE_LOOP ( 'NONE', ( #67, #305, #150, #88 ) ) ;
#362 = AXIS2_PLACEMENT_3D ( 'NONE', #337, #110, #76 ) ;
#363 = PRESENTATION_STYLE_ASSIGNMENT (( #182 ) ) ;
#364 = ORIENTED_EDGE ( 'NONE', *, *, #32, .T. ) ;
#365 = PLANE ( 'NONE',  #319 ) ;
#366 = CYLINDRICAL_SURFACE ( 'NONE', #351, 30.10000000000000100 ) ;
#367 = TOROIDAL_SURFACE ( 'NONE', #101, 1.571508043264743500, 65.39668273699591300 ) ;
#368 = ORIENTED_EDGE ( 'NONE', *, *, #275, .F. ) ;
#369 = CARTESIAN_POINT ( 'NONE',  ( 0.0000000000000000000, 35.85076250202341400, 22.63840991484256900 ) ) ;
#370 = DIRECTION ( 'NONE',  ( -0.0000000000000000000, 1.000000000000000000, -0.0000000000000000000 ) ) ;
#371 = ADVANCED_FACE ( 'NONE', ( #163 ), #18, .T. ) ;
#372 = VERTEX_POINT ( 'NONE', #97 ) ;
#373 = PRODUCT_DEFINITION_FORMATION_WITH_SPECIFIED_SOURCE ( 'ANY', '', #334, .NOT_KNOWN. ) ;
#374 = AXIS2_PLACEMENT_3D ( 'NONE', #167, #230, #143 ) ;
#375 = CARTESIAN_POINT ( 'NONE',  ( 0.0000000000000000000, 0.0000000000000000000, 31.75000000000000000 ) ) ;
#376 = LINE ( 'NONE', #116, #56 ) ;
ENDSEC;
END-ISO-10303-21;
