ISO-10303-21;
HEADER;
/****************************************************************
 * Generated by software with PDE/Lib inside                    *
 * PDElib Version v51a, created Thu 01/14/2010                  *
 * ITI Transcendata (http://www.transcendata.com/)              *
 ****************************************************************/
FILE_DESCRIPTION((''),'2;1');
FILE_NAME('P:\\2. PROJECTEN\\2017\\PRO.1703.01\\3. ONTWERP\\PRO.1703.01 - 0\\2. PARTS\\200 PIPING\\T-stuk lang - 2.0inch.stp','2017-03-06T11:47:16',('Engineer'),(''),'Autodesk Inventor 2011','Autodesk Inventor 2011','');
FILE_SCHEMA(('AUTOMOTIVE_DESIGN { 1 0 10303 214 1 1 1 1 }'));
ENDSEC;
DATA;
#5=APPLICATION_CONTEXT('automotive design');
#6=APPLICATION_PROTOCOL_DEFINITION('International Standard','automotive_design',2001,#5);
#7=PRODUCT_CONTEXT('',#5,'mechanical');
#8=PRODUCT('T-stuk lang iPart','T-stuk lang iPart',$,(#7));
#9=PRODUCT_RELATED_PRODUCT_CATEGORY('part',$,(#8));
#10=PRODUCT_DEFINITION_FORMATION('',$,#8);
#11=PRODUCT_DEFINITION_CONTEXT('part definition',#5,'design');
#12=PRODUCT_DEFINITION('',$,#10,#11);
#18=(NAMED_UNIT(*)PLANE_ANGLE_UNIT()SI_UNIT($,.RADIAN.));
#19=DIMENSIONAL_EXPONENTS(0.0,0.0,0.0,0.0,0.0,0.0,0.0);
#20=PLANE_ANGLE_MEASURE_WITH_UNIT(PLANE_ANGLE_MEASURE(0.017453292500000),#18);
#24=(CONVERSION_BASED_UNIT('DEGREE',#20)NAMED_UNIT(#19)PLANE_ANGLE_UNIT());
#28=(NAMED_UNIT(*)SI_UNIT($,.STERADIAN.)SOLID_ANGLE_UNIT());
#32=(LENGTH_UNIT()NAMED_UNIT(*)SI_UNIT(.MILLI.,.METRE.));
#34=UNCERTAINTY_MEASURE_WITH_UNIT(LENGTH_MEASURE(0.010000000000000),#32,'DISTANCE_ACCURACY_VALUE','');
#36=(GEOMETRIC_REPRESENTATION_CONTEXT(3)GLOBAL_UNCERTAINTY_ASSIGNED_CONTEXT((#34))GLOBAL_UNIT_ASSIGNED_CONTEXT((#24,#28,#32))REPRESENTATION_CONTEXT('None','None'));
#37=AXIS2_PLACEMENT_3D('',#38,#39,#40);
#38=CARTESIAN_POINT('',(0.0,0.0,0.0));
#39=DIRECTION('',(0.0,0.0,1.0));
#40=DIRECTION('',(1.0,0.0,0.0));
#41=SHAPE_REPRESENTATION('',(#37),#36);
#42=PRODUCT_DEFINITION_SHAPE('','',#12);
#43=SHAPE_DEFINITION_REPRESENTATION(#42,#41);
#49=(NAMED_UNIT(*)PLANE_ANGLE_UNIT()SI_UNIT($,.RADIAN.));
#50=DIMENSIONAL_EXPONENTS(0.0,0.0,0.0,0.0,0.0,0.0,0.0);
#51=PLANE_ANGLE_MEASURE_WITH_UNIT(PLANE_ANGLE_MEASURE(0.017453292500000),#49);
#55=(CONVERSION_BASED_UNIT('DEGREE',#51)NAMED_UNIT(#50)PLANE_ANGLE_UNIT());
#59=(NAMED_UNIT(*)SI_UNIT($,.STERADIAN.)SOLID_ANGLE_UNIT());
#63=(LENGTH_UNIT()NAMED_UNIT(*)SI_UNIT(.MILLI.,.METRE.));
#65=UNCERTAINTY_MEASURE_WITH_UNIT(LENGTH_MEASURE(0.000001000000000),#63,'DISTANCE_ACCURACY_VALUE','');
#67=(GEOMETRIC_REPRESENTATION_CONTEXT(3)GLOBAL_UNCERTAINTY_ASSIGNED_CONTEXT((#65))GLOBAL_UNIT_ASSIGNED_CONTEXT((#55,#59,#63))REPRESENTATION_CONTEXT('','3D'));
#68=CARTESIAN_POINT('',(25.399999999999999,3.110603E-015,1.604287E-015));
#69=CARTESIAN_POINT('',(25.399999999999999,3.110603E-015,1.604287E-015));
#70=CARTESIAN_POINT('',(25.400000000000009,3.110603E-015,1.604287E-015));
#71=CARTESIAN_POINT('',(25.399999999999999,3.110603E-015,1.604287E-015));
#72=CARTESIAN_POINT('',(25.399999999999999,3.110603E-015,1.604287E-015));
#73=CARTESIAN_POINT('',(25.399999999999999,3.799831114341945,3.919510834478698));
#74=CARTESIAN_POINT('',(25.399999999999999,3.822627251510860,3.896714697309786));
#75=CARTESIAN_POINT('',(25.400000000000009,3.862520491556426,3.856821457264216));
#76=CARTESIAN_POINT('',(25.399999999999999,3.902413731602024,3.816928217218617));
#77=CARTESIAN_POINT('',(25.399999999999999,3.919510834478699,3.799831114341943));
#78=CARTESIAN_POINT('',(23.668288689497370,11.398124791255736,11.757120847673239));
#79=CARTESIAN_POINT('',(23.647333324148558,11.465450893814706,11.687864035408030));
#80=CARTESIAN_POINT('',(23.632213896362156,11.583839221289377,11.566693607070137));
#81=CARTESIAN_POINT('',(23.652439324098864,11.705120731101129,11.448553336166441));
#82=CARTESIAN_POINT('',(23.668288689497370,11.757120847673226,11.398124791255736));
#83=CARTESIAN_POINT('',(16.377283708605127,20.536287476923661,21.183099680921259));
#84=CARTESIAN_POINT('',(16.289048811505982,20.609331069333194,21.034411437589739));
#85=CARTESIAN_POINT('',(16.216947210878637,20.810750423667944,20.773756170657389));
#86=CARTESIAN_POINT('',(16.311091387437727,21.071400190586630,20.590869048229127));
#87=CARTESIAN_POINT('',(16.377283708605141,21.183099680921259,20.536287476923665));
#88=CARTESIAN_POINT('',(5.845673198754863,25.611908754215133,26.418583045686503));
#89=CARTESIAN_POINT('',(5.775052900073437,25.609524815386795,26.176082612416366));
#90=CARTESIAN_POINT('',(5.711964871644465,25.812494515019715,25.757089429444733));
#91=CARTESIAN_POINT('',(5.793107161813857,26.236992262165124,25.610434943639007));
#92=CARTESIAN_POINT('',(5.845673198754856,26.418583045686503,25.611908754215147));
#93=CARTESIAN_POINT('',(-5.844970347575110,25.608160058728416,26.414716281050595));
#94=CARTESIAN_POINT('',(-5.774946009874087,25.606210935671992,26.172418023779834));
#95=CARTESIAN_POINT('',(-5.712065495339230,25.808631086248038,25.753291890968253));
#96=CARTESIAN_POINT('',(-5.792746604963169,26.233101809031911,25.606818320650852));
#97=CARTESIAN_POINT('',(-5.844970347575106,26.414716281050573,25.608160058728441));
#98=CARTESIAN_POINT('',(-16.379256904174738,20.539459001342557,21.186371095873024));
#99=CARTESIAN_POINT('',(-16.290739919534744,20.613322589711665,21.038202924230767));
#100=CARTESIAN_POINT('',(-16.218847641457302,20.815233733388467,20.778301246426967));
#101=CARTESIAN_POINT('',(-16.312961674038430,21.075031064188977,20.594622611041228));
#102=CARTESIAN_POINT('',(-16.379256904174746,21.186371095873039,20.539459001342550));
#103=CARTESIAN_POINT('',(-23.666580938064531,11.396308467944319,11.755247317328406));
#104=CARTESIAN_POINT('',(-23.645197247528465,11.463488931951630,11.686035133330876));
#105=CARTESIAN_POINT('',(-23.629634344510187,11.582277450835790,11.565097184351707));
#106=CARTESIAN_POINT('',(-23.650427113795974,11.703351910715652,11.446707158675068));
#107=CARTESIAN_POINT('',(-23.666580938064531,11.755247317328386,11.396308467944333));
#108=CARTESIAN_POINT('',(-25.399999999999999,3.799831114341943,3.919510834478698));
#109=CARTESIAN_POINT('',(-25.399999999999999,3.822627251510858,3.896714697309785));
#110=CARTESIAN_POINT('',(-25.400000000000009,3.862520491556425,3.856821457264215));
#111=CARTESIAN_POINT('',(-25.399999999999999,3.902413731602024,3.816928217218615));
#112=CARTESIAN_POINT('',(-25.399999999999999,3.919510834478699,3.799831114341941));
#113=CARTESIAN_POINT('',(-25.399999999999999,1.555301E-015,1.604287E-015));
#114=CARTESIAN_POINT('',(-25.399999999999999,1.856215E-015,1.303374E-015));
#115=CARTESIAN_POINT('',(-25.400000000000009,2.382813E-015,7.767760E-016));
#116=CARTESIAN_POINT('',(-25.399999999999999,2.909411E-015,2.501778E-016));
#117=CARTESIAN_POINT('',(-25.399999999999999,3.135096E-015,2.449294E-017));
#118=B_SPLINE_SURFACE_WITH_KNOTS('',3,3,((#68,#73,#78,#83,#88,#93,#98,#103,#108,#113),(#69,#74,#79,#84,#89,#94,#99,#104,#109,#114),(#70,#75,#80,#85,#90,#95,#100,#105,#110,#115),(#71,#76,#81,#86,#91,#96,#101,#106,#111,#116),(#72,#77,#82,#87,#92,#97,#102,#107,#112,#117)),.UNSPECIFIED.,.F.,.F.,.U.,(4,1,4),(4,1,1,1,1,1,1,4),(0.0,0.571428571428571,1.0),(-1.570796326794897,-1.121997376282069,-0.673198425769241,-0.224399475256414,0.224399475256414,0.673198425769241,1.121997376282069,1.570796326794897),.UNSPECIFIED.);
#119=CARTESIAN_POINT('',(25.399999999999999,0.0,0.0));
#120=VERTEX_POINT('',#119);
#121=CARTESIAN_POINT('',(-25.399999999999999,0.0,0.0));
#122=VERTEX_POINT('',#121);
#123=CARTESIAN_POINT('',(0.0,4.440892E-015,0.0));
#124=DIRECTION('',(1.216980E-016,-0.696060234322250,0.717983391308778));
#125=DIRECTION('',(0.0,0.717983391308778,0.696060234322250));
#126=AXIS2_PLACEMENT_3D('',#123,#124,#125);
#127=ELLIPSE('',#126,36.491094804075139,25.399999999999999);
#128=EDGE_CURVE('',#120,#122,#127,.T.);
#129=ORIENTED_EDGE('',*,*,#128,.T.);
#130=CARTESIAN_POINT('',(0.0,0.0,0.0));
#131=DIRECTION('',(0.0,0.717983391308778,-0.696060234322250));
#132=DIRECTION('',(0.0,0.696060234322250,0.717983391308778));
#133=AXIS2_PLACEMENT_3D('',#130,#131,#132);
#134=ELLIPSE('',#133,36.491094804075146,25.399999999999995);
#135=EDGE_CURVE('',#122,#120,#134,.T.);
#136=ORIENTED_EDGE('',*,*,#135,.T.);
#137=EDGE_LOOP('',(#129,#136));
#138=FACE_OUTER_BOUND('',#137,.T.);
#139=ADVANCED_FACE('',(#138),#118,.T.);
#140=CARTESIAN_POINT('',(-25.399999999999999,1.555301E-015,-1.604287E-015));
#141=CARTESIAN_POINT('',(-25.399999999999999,1.555301E-015,-1.604287E-015));
#142=CARTESIAN_POINT('',(-25.400000000000009,1.555301E-015,-1.604287E-015));
#143=CARTESIAN_POINT('',(-25.399999999999999,1.555301E-015,-1.604287E-015));
#144=CARTESIAN_POINT('',(-25.399999999999999,1.555301E-015,-1.604287E-015));
#145=CARTESIAN_POINT('',(-25.399999999999999,3.799831114341943,-3.919510834478698));
#146=CARTESIAN_POINT('',(-25.399999999999999,3.822627251510858,-3.896714697309786));
#147=CARTESIAN_POINT('',(-25.400000000000009,3.862520491556424,-3.856821457264216));
#148=CARTESIAN_POINT('',(-25.399999999999999,3.902413731602023,-3.816928217218617));
#149=CARTESIAN_POINT('',(-25.399999999999999,3.919510834478697,-3.799831114341943));
#150=CARTESIAN_POINT('',(-23.668288689497370,11.398124791255736,-11.757120847673239));
#151=CARTESIAN_POINT('',(-23.647333324148562,11.465450893814710,-11.687864035408030));
#152=CARTESIAN_POINT('',(-23.632213896362156,11.583839221289365,-11.566693607070142));
#153=CARTESIAN_POINT('',(-23.652439324098857,11.705120731101131,-11.448553336166434));
#154=CARTESIAN_POINT('',(-23.668288689497370,11.757120847673228,-11.398124791255729));
#155=CARTESIAN_POINT('',(-16.377283708605134,20.536287476923654,-21.183099680921259));
#156=CARTESIAN_POINT('',(-16.289048811505971,20.609331069333191,-21.034411437589739));
#157=CARTESIAN_POINT('',(-16.216947210878651,20.810750423667955,-20.773756170657375));
#158=CARTESIAN_POINT('',(-16.311091387437727,21.071400190586619,-20.590869048229127));
#159=CARTESIAN_POINT('',(-16.377283708605134,21.183099680921266,-20.536287476923675));
#160=CARTESIAN_POINT('',(-5.845673198754861,25.611908754215150,-26.418583045686503));
#161=CARTESIAN_POINT('',(-5.775052900073443,25.609524815386791,-26.176082612416366));
#162=CARTESIAN_POINT('',(-5.711964871644454,25.812494515019708,-25.757089429444733));
#163=CARTESIAN_POINT('',(-5.793107161813859,26.236992262165142,-25.610434943639007));
#164=CARTESIAN_POINT('',(-5.845673198754859,26.418583045686503,-25.611908754215147));
#165=CARTESIAN_POINT('',(5.844970347575106,25.608160058728412,-26.414716281050595));
#166=CARTESIAN_POINT('',(5.774946009874094,25.606210935671996,-26.172418023779834));
#167=CARTESIAN_POINT('',(5.712065495339226,25.808631086248038,-25.753291890968253));
#168=CARTESIAN_POINT('',(5.792746604963170,26.233101809031893,-25.606818320650852));
#169=CARTESIAN_POINT('',(5.844970347575106,26.414716281050573,-25.608160058728441));
#170=CARTESIAN_POINT('',(16.379256904174746,20.539459001342557,-21.186371095873024));
#171=CARTESIAN_POINT('',(16.290739919534733,20.613322589711661,-21.038202924230767));
#172=CARTESIAN_POINT('',(16.218847641457309,20.815233733388464,-20.778301246426967));
#173=CARTESIAN_POINT('',(16.312961674038423,21.075031064188984,-20.594622611041228));
#174=CARTESIAN_POINT('',(16.379256904174746,21.186371095873035,-20.539459001342554));
#175=CARTESIAN_POINT('',(23.666580938064531,11.396308467944321,-11.755247317328406));
#176=CARTESIAN_POINT('',(23.645197247528476,11.463488931951639,-11.686035133330876));
#177=CARTESIAN_POINT('',(23.629634344510173,11.582277450835786,-11.565097184351707));
#178=CARTESIAN_POINT('',(23.650427113795974,11.703351910715652,-11.446707158675071));
#179=CARTESIAN_POINT('',(23.666580938064531,11.755247317328390,-11.396308467944330));
#180=CARTESIAN_POINT('',(25.399999999999999,3.799831114341945,-3.919510834478698));
#181=CARTESIAN_POINT('',(25.399999999999999,3.822627251510860,-3.896714697309786));
#182=CARTESIAN_POINT('',(25.400000000000009,3.862520491556426,-3.856821457264216));
#183=CARTESIAN_POINT('',(25.399999999999999,3.902413731602024,-3.816928217218617));
#184=CARTESIAN_POINT('',(25.399999999999999,3.919510834478699,-3.799831114341943));
#185=CARTESIAN_POINT('',(25.399999999999999,3.110603E-015,-1.604287E-015));
#186=CARTESIAN_POINT('',(25.399999999999999,3.110603E-015,-1.604287E-015));
#187=CARTESIAN_POINT('',(25.400000000000009,3.110603E-015,-1.604287E-015));
#188=CARTESIAN_POINT('',(25.399999999999999,3.110603E-015,-1.604287E-015));
#189=CARTESIAN_POINT('',(25.399999999999999,3.110603E-015,-1.604287E-015));
#190=B_SPLINE_SURFACE_WITH_KNOTS('',3,3,((#140,#145,#150,#155,#160,#165,#170,#175,#180,#185),(#141,#146,#151,#156,#161,#166,#171,#176,#181,#186),(#142,#147,#152,#157,#162,#167,#172,#177,#182,#187),(#143,#148,#153,#158,#163,#168,#173,#178,#183,#188),(#144,#149,#154,#159,#164,#169,#174,#179,#184,#189)),.UNSPECIFIED.,.F.,.F.,.U.,(4,1,4),(4,1,1,1,1,1,1,4),(0.0,0.571428571428571,1.0),(-1.570796326794897,-1.121997376282069,-0.673198425769241,-0.224399475256414,0.224399475256414,0.673198425769241,1.121997376282069,1.570796326794897),.UNSPECIFIED.);
#191=CARTESIAN_POINT('',(0.0,4.440892E-015,0.0));
#192=DIRECTION('',(-1.216980E-016,-0.696060234322250,-0.717983391308778));
#193=DIRECTION('',(0.0,0.717983391308778,-0.696060234322250));
#194=AXIS2_PLACEMENT_3D('',#191,#192,#193);
#195=ELLIPSE('',#194,36.491094804075139,25.399999999999999);
#196=EDGE_CURVE('',#122,#120,#195,.T.);
#197=ORIENTED_EDGE('',*,*,#196,.T.);
#198=CARTESIAN_POINT('',(0.0,0.0,0.0));
#199=DIRECTION('',(0.0,0.717983391308778,0.696060234322250));
#200=DIRECTION('',(0.0,0.696060234322250,-0.717983391308778));
#201=AXIS2_PLACEMENT_3D('',#198,#199,#200);
#202=ELLIPSE('',#201,36.491094804075146,25.399999999999995);
#203=EDGE_CURVE('',#120,#122,#202,.T.);
#204=ORIENTED_EDGE('',*,*,#203,.T.);
#205=EDGE_LOOP('',(#197,#204));
#206=FACE_OUTER_BOUND('',#205,.T.);
#207=ADVANCED_FACE('',(#206),#190,.T.);
#208=CARTESIAN_POINT('',(0.0,89.0,0.0));
#209=DIRECTION('',(0.0,-1.0,0.0));
#210=DIRECTION('',(1.0,0.0,0.0));
#211=AXIS2_PLACEMENT_3D('',#208,#209,#210);
#212=CYLINDRICAL_SURFACE('',#211,23.750000000000000);
#213=CARTESIAN_POINT('',(23.750000000000000,0.0,0.0));
#214=VERTEX_POINT('',#213);
#215=CARTESIAN_POINT('',(-23.750000000000000,0.0,2.908536E-015));
#216=VERTEX_POINT('',#215);
#217=CARTESIAN_POINT('',(0.0,0.0,0.0));
#218=DIRECTION('',(0.0,0.707106781186547,0.707106781186547));
#219=DIRECTION('',(0.0,-0.707106781186547,0.707106781186547));
#220=AXIS2_PLACEMENT_3D('',#217,#218,#219);
#221=ELLIPSE('',#220,33.587572106361002,23.750000000000004);
#222=EDGE_CURVE('',#214,#216,#221,.T.);
#223=ORIENTED_EDGE('',*,*,#222,.F.);
#224=CARTESIAN_POINT('',(0.0,0.0,0.0));
#225=DIRECTION('',(0.0,0.707106781186547,-0.707106781186547));
#226=DIRECTION('',(0.0,0.707106781186547,0.707106781186547));
#227=AXIS2_PLACEMENT_3D('',#224,#225,#226);
#228=ELLIPSE('',#227,33.587572106361002,23.750000000000004);
#229=EDGE_CURVE('',#216,#214,#228,.T.);
#230=ORIENTED_EDGE('',*,*,#229,.F.);
#231=EDGE_LOOP('',(#223,#230));
#232=FACE_OUTER_BOUND('',#231,.T.);
#233=CARTESIAN_POINT('',(-23.750000000000000,89.0,2.908536E-015));
#234=VERTEX_POINT('',#233);
#235=CARTESIAN_POINT('',(0.0,89.0,0.0));
#236=DIRECTION('',(0.0,-1.0,0.0));
#237=DIRECTION('',(1.0,0.0,0.0));
#238=AXIS2_PLACEMENT_3D('',#235,#236,#237);
#239=CIRCLE('',#238,23.750000000000000);
#240=EDGE_CURVE('',#234,#234,#239,.T.);
#241=ORIENTED_EDGE('',*,*,#240,.F.);
#242=EDGE_LOOP('',(#241));
#243=FACE_BOUND('',#242,.T.);
#244=ADVANCED_FACE('',(#232,#243),#212,.F.);
#245=CARTESIAN_POINT('',(0.0,89.0,0.0));
#246=DIRECTION('',(0.0,-1.0,0.0));
#247=DIRECTION('',(1.0,0.0,0.0));
#248=AXIS2_PLACEMENT_3D('',#245,#246,#247);
#249=CYLINDRICAL_SURFACE('',#248,25.399999999999999);
#250=ORIENTED_EDGE('',*,*,#196,.F.);
#251=ORIENTED_EDGE('',*,*,#128,.F.);
#252=EDGE_LOOP('',(#250,#251));
#253=FACE_OUTER_BOUND('',#252,.T.);
#254=CARTESIAN_POINT('',(-25.399999999999999,89.0,3.110603E-015));
#255=VERTEX_POINT('',#254);
#256=CARTESIAN_POINT('',(0.0,89.0,0.0));
#257=DIRECTION('',(0.0,-1.0,0.0));
#258=DIRECTION('',(1.0,0.0,0.0));
#259=AXIS2_PLACEMENT_3D('',#256,#257,#258);
#260=CIRCLE('',#259,25.399999999999999);
#261=EDGE_CURVE('',#255,#255,#260,.T.);
#262=ORIENTED_EDGE('',*,*,#261,.T.);
#263=EDGE_LOOP('',(#262));
#264=FACE_BOUND('',#263,.T.);
#265=ADVANCED_FACE('',(#253,#264),#249,.T.);
#266=CARTESIAN_POINT('',(0.0,89.0,0.0));
#267=DIRECTION('',(0.0,-1.0,0.0));
#268=DIRECTION('',(0.0,0.0,-1.0));
#269=AXIS2_PLACEMENT_3D('',#266,#267,#268);
#270=PLANE('',#269);
#271=ORIENTED_EDGE('',*,*,#261,.F.);
#272=EDGE_LOOP('',(#271));
#273=FACE_OUTER_BOUND('',#272,.T.);
#274=ORIENTED_EDGE('',*,*,#240,.T.);
#275=EDGE_LOOP('',(#274));
#276=FACE_BOUND('',#275,.T.);
#277=ADVANCED_FACE('',(#273,#276),#270,.F.);
#278=CARTESIAN_POINT('',(0.0,0.0,0.0));
#279=DIRECTION('',(0.0,0.0,1.0));
#280=DIRECTION('',(-1.0,0.0,0.0));
#281=AXIS2_PLACEMENT_3D('',#278,#279,#280);
#282=CYLINDRICAL_SURFACE('',#281,25.399999999999999);
#283=CARTESIAN_POINT('',(25.399999999999999,3.110603E-015,89.0));
#284=VERTEX_POINT('',#283);
#285=CARTESIAN_POINT('',(0.0,0.0,89.0));
#286=DIRECTION('',(0.0,0.0,-1.0));
#287=DIRECTION('',(-1.0,0.0,0.0));
#288=AXIS2_PLACEMENT_3D('',#285,#286,#287);
#289=CIRCLE('',#288,25.399999999999999);
#290=EDGE_CURVE('',#284,#284,#289,.T.);
#291=ORIENTED_EDGE('',*,*,#290,.T.);
#292=EDGE_LOOP('',(#291));
#293=FACE_OUTER_BOUND('',#292,.T.);
#294=ORIENTED_EDGE('',*,*,#135,.F.);
#295=ORIENTED_EDGE('',*,*,#203,.F.);
#296=EDGE_LOOP('',(#294,#295));
#297=FACE_BOUND('',#296,.T.);
#298=CARTESIAN_POINT('',(25.399999999999999,3.110603E-015,-89.0));
#299=VERTEX_POINT('',#298);
#300=CARTESIAN_POINT('',(0.0,0.0,-89.0));
#301=DIRECTION('',(0.0,0.0,1.0));
#302=DIRECTION('',(-1.0,0.0,0.0));
#303=AXIS2_PLACEMENT_3D('',#300,#301,#302);
#304=CIRCLE('',#303,25.399999999999999);
#305=EDGE_CURVE('',#299,#299,#304,.T.);
#306=ORIENTED_EDGE('',*,*,#305,.T.);
#307=EDGE_LOOP('',(#306));
#308=FACE_BOUND('',#307,.T.);
#309=ADVANCED_FACE('',(#293,#297,#308),#282,.T.);
#310=CARTESIAN_POINT('',(0.0,0.0,0.0));
#311=DIRECTION('',(0.0,0.0,1.0));
#312=DIRECTION('',(-1.0,0.0,0.0));
#313=AXIS2_PLACEMENT_3D('',#310,#311,#312);
#314=CYLINDRICAL_SURFACE('',#313,23.750000000000000);
#315=CARTESIAN_POINT('',(23.750000000000000,2.908536E-015,-89.0));
#316=VERTEX_POINT('',#315);
#317=CARTESIAN_POINT('',(0.0,0.0,-89.0));
#318=DIRECTION('',(0.0,0.0,1.0));
#319=DIRECTION('',(-1.0,0.0,0.0));
#320=AXIS2_PLACEMENT_3D('',#317,#318,#319);
#321=CIRCLE('',#320,23.750000000000000);
#322=EDGE_CURVE('',#316,#316,#321,.T.);
#323=ORIENTED_EDGE('',*,*,#322,.F.);
#324=EDGE_LOOP('',(#323));
#325=FACE_OUTER_BOUND('',#324,.T.);
#326=ORIENTED_EDGE('',*,*,#222,.T.);
#327=ORIENTED_EDGE('',*,*,#229,.T.);
#328=EDGE_LOOP('',(#326,#327));
#329=FACE_BOUND('',#328,.T.);
#330=CARTESIAN_POINT('',(23.750000000000000,2.908536E-015,89.0));
#331=VERTEX_POINT('',#330);
#332=CARTESIAN_POINT('',(0.0,0.0,89.0));
#333=DIRECTION('',(0.0,0.0,-1.0));
#334=DIRECTION('',(-1.0,0.0,0.0));
#335=AXIS2_PLACEMENT_3D('',#332,#333,#334);
#336=CIRCLE('',#335,23.750000000000000);
#337=EDGE_CURVE('',#331,#331,#336,.T.);
#338=ORIENTED_EDGE('',*,*,#337,.F.);
#339=EDGE_LOOP('',(#338));
#340=FACE_BOUND('',#339,.T.);
#341=ADVANCED_FACE('',(#325,#329,#340),#314,.F.);
#342=CARTESIAN_POINT('',(0.0,0.0,-89.0));
#343=DIRECTION('',(0.0,0.0,-1.0));
#344=DIRECTION('',(-1.0,0.0,0.0));
#345=AXIS2_PLACEMENT_3D('',#342,#343,#344);
#346=PLANE('',#345);
#347=ORIENTED_EDGE('',*,*,#305,.F.);
#348=EDGE_LOOP('',(#347));
#349=FACE_OUTER_BOUND('',#348,.T.);
#350=ORIENTED_EDGE('',*,*,#322,.T.);
#351=EDGE_LOOP('',(#350));
#352=FACE_BOUND('',#351,.T.);
#353=ADVANCED_FACE('',(#349,#352),#346,.T.);
#354=CARTESIAN_POINT('',(0.0,0.0,89.0));
#355=DIRECTION('',(0.0,0.0,-1.0));
#356=DIRECTION('',(-1.0,0.0,0.0));
#357=AXIS2_PLACEMENT_3D('',#354,#355,#356);
#358=PLANE('',#357);
#359=ORIENTED_EDGE('',*,*,#290,.F.);
#360=EDGE_LOOP('',(#359));
#361=FACE_OUTER_BOUND('',#360,.T.);
#362=ORIENTED_EDGE('',*,*,#337,.T.);
#363=EDGE_LOOP('',(#362));
#364=FACE_BOUND('',#363,.T.);
#365=ADVANCED_FACE('',(#361,#364),#358,.F.);
#366=CLOSED_SHELL('',(#139,#207,#244,#265,#277,#309,#341,#353,#365));
#367=MANIFOLD_SOLID_BREP('Solid1',#366);
#368=COLOUR_RGB('Metal-Steel',0.639216005802155,0.639216005802155,0.686275005340576);
#369=FILL_AREA_STYLE_COLOUR('Metal-Steel',#368);
#370=FILL_AREA_STYLE('Metal-Steel',(#369));
#371=SURFACE_STYLE_FILL_AREA(#370);
#372=SURFACE_SIDE_STYLE('Metal-Steel',(#371));
#373=SURFACE_STYLE_USAGE(.BOTH.,#372);
#374=PRESENTATION_STYLE_ASSIGNMENT((#373));
#375=STYLED_ITEM('',(#374),#367);
#376=MECHANICAL_DESIGN_GEOMETRIC_PRESENTATION_REPRESENTATION('',(#375),#36);
#377=ADVANCED_BREP_SHAPE_REPRESENTATION('ABSR',(#367),#36);
#378=SHAPE_REPRESENTATION_RELATIONSHIP('SRR','None',#377,#41);
ENDSEC;
END-ISO-10303-21;
