ISO-10303-21;
HEADER;
/****************************************************************
 * Generated by software with PDE/Lib inside                    *
 * PDElib Version v51a, created Thu 12/14/2006                  *
 * International Technegroup Inc. (www.iti-oh.com)              *
 ****************************************************************/
FILE_DESCRIPTION((''),'2;1');
FILE_NAME('T:\\Arbeitspl\S\dtze\\Aushilfe\\KPeters\\3D\\Steps 08_10\\11420\\11420125x.stp','2010-08-03T09:23:01',('thilbrands'),(''),'Autodesk Inventor 2008','Autodesk Inventor 2008','');
FILE_SCHEMA(('AUTOMOTIVE_DESIGN { 1 0 10303 214 1 1 1 1 }'));
ENDSEC;
DATA;
#5=APPLICATION_CONTEXT('automotive design');
#6=APPLICATION_PROTOCOL_DEFINITION('International Standard','automotive_design',2001,#5);
#7=PRODUCT_CONTEXT('',#5,'mechanical');
#8=PRODUCT('114200101','114200101',$,(#7));
#9=PRODUCT_RELATED_PRODUCT_CATEGORY('part',$,(#8));
#10=PRODUCT_DEFINITION_FORMATION('',$,#8);
#11=PRODUCT_DEFINITION_CONTEXT('part definition',#5,'design');
#12=PRODUCT_DEFINITION('',$,#10,#11);
#18=(NAMED_UNIT(*)PLANE_ANGLE_UNIT()SI_UNIT($,.RADIAN.));
#19=DIMENSIONAL_EXPONENTS(0.0,0.0,0.0,0.0,0.0,0.0,0.0);
#20=PLANE_ANGLE_MEASURE_WITH_UNIT(PLANE_ANGLE_MEASURE(0.017453292500000),#18);
#24=(CONVERSION_BASED_UNIT('DEGREE',#20)NAMED_UNIT(#19)PLANE_ANGLE_UNIT());
#28=(NAMED_UNIT(*)SI_UNIT($,.STERADIAN.)SOLID_ANGLE_UNIT());
#32=(LENGTH_UNIT()NAMED_UNIT(*)SI_UNIT(.MILLI.,.METRE.));
#34=UNCERTAINTY_MEASURE_WITH_UNIT(LENGTH_MEASURE(0.010000000000000),#32,'DISTANCE_ACCURACY_VALUE','');
#36=(GEOMETRIC_REPRESENTATION_CONTEXT(3)GLOBAL_UNCERTAINTY_ASSIGNED_CONTEXT((#34))GLOBAL_UNIT_ASSIGNED_CONTEXT((#24,#28,#32))REPRESENTATION_CONTEXT('None','None'));
#37=AXIS2_PLACEMENT_3D('',#38,#39,#40);
#38=CARTESIAN_POINT('',(0.0,0.0,0.0));
#39=DIRECTION('',(0.0,0.0,1.0));
#40=DIRECTION('',(1.0,0.0,0.0));
#41=SHAPE_REPRESENTATION('',(#37),#36);
#42=PRODUCT_DEFINITION_SHAPE('','',#12);
#43=SHAPE_DEFINITION_REPRESENTATION(#42,#41);
#49=(NAMED_UNIT(*)PLANE_ANGLE_UNIT()SI_UNIT($,.RADIAN.));
#50=DIMENSIONAL_EXPONENTS(0.0,0.0,0.0,0.0,0.0,0.0,0.0);
#51=PLANE_ANGLE_MEASURE_WITH_UNIT(PLANE_ANGLE_MEASURE(0.017453292500000),#49);
#55=(CONVERSION_BASED_UNIT('DEGREE',#51)NAMED_UNIT(#50)PLANE_ANGLE_UNIT());
#59=(NAMED_UNIT(*)SI_UNIT($,.STERADIAN.)SOLID_ANGLE_UNIT());
#63=(LENGTH_UNIT()NAMED_UNIT(*)SI_UNIT(.MILLI.,.METRE.));
#65=UNCERTAINTY_MEASURE_WITH_UNIT(LENGTH_MEASURE(0.000001000000000),#63,'DISTANCE_ACCURACY_VALUE','');
#67=(GEOMETRIC_REPRESENTATION_CONTEXT(3)GLOBAL_UNCERTAINTY_ASSIGNED_CONTEXT((#65))GLOBAL_UNIT_ASSIGNED_CONTEXT((#55,#59,#63))REPRESENTATION_CONTEXT('','3D'));
#68=CARTESIAN_POINT('',(-17.000000000000021,0.0,0.0));
#69=DIRECTION('',(1.0,0.0,0.0));
#70=DIRECTION('',(0.0,1.0,0.0));
#71=AXIS2_PLACEMENT_3D('',#68,#69,#70);
#72=CYLINDRICAL_SURFACE('',#71,62.500000000000000);
#73=CARTESIAN_POINT('',(-34.000000000000021,62.500000000000000,0.0));
#74=VERTEX_POINT('',#73);
#75=CARTESIAN_POINT('',(-34.000000000000021,0.0,0.0));
#76=DIRECTION('',(1.0,0.0,0.0));
#77=DIRECTION('',(0.0,1.0,0.0));
#78=AXIS2_PLACEMENT_3D('',#75,#76,#77);
#79=CIRCLE('',#78,62.500000000000000);
#80=EDGE_CURVE('',#74,#74,#79,.T.);
#81=ORIENTED_EDGE('',*,*,#80,.F.);
#82=EDGE_LOOP('',(#81));
#83=FACE_OUTER_BOUND('',#82,.T.);
#84=CARTESIAN_POINT('',(-2.331468E-014,62.500000000000000,0.0));
#85=VERTEX_POINT('',#84);
#86=CARTESIAN_POINT('',(-2.331468E-014,0.0,0.0));
#87=DIRECTION('',(1.0,0.0,0.0));
#88=DIRECTION('',(0.0,1.0,0.0));
#89=AXIS2_PLACEMENT_3D('',#86,#87,#88);
#90=CIRCLE('',#89,62.500000000000000);
#91=EDGE_CURVE('',#85,#85,#90,.T.);
#92=ORIENTED_EDGE('',*,*,#91,.T.);
#93=EDGE_LOOP('',(#92));
#94=FACE_BOUND('',#93,.T.);
#95=ADVANCED_FACE('',(#83,#94),#72,.F.);
#96=CARTESIAN_POINT('',(-34.000000000000021,62.749999999999993,0.0));
#97=DIRECTION('',(-1.0,0.0,0.0));
#98=DIRECTION('',(0.0,0.0,1.0));
#99=AXIS2_PLACEMENT_3D('',#96,#97,#98);
#100=PLANE('',#99);
#101=CARTESIAN_POINT('',(-34.000000000000014,62.999999999999986,0.0));
#102=VERTEX_POINT('',#101);
#103=CARTESIAN_POINT('',(-34.000000000000014,0.0,0.0));
#104=DIRECTION('',(1.0,0.0,0.0));
#105=DIRECTION('',(0.0,1.0,0.0));
#106=AXIS2_PLACEMENT_3D('',#103,#104,#105);
#107=CIRCLE('',#106,62.999999999999986);
#108=EDGE_CURVE('',#102,#102,#107,.T.);
#109=ORIENTED_EDGE('',*,*,#108,.F.);
#110=EDGE_LOOP('',(#109));
#111=FACE_OUTER_BOUND('',#110,.T.);
#112=ORIENTED_EDGE('',*,*,#80,.T.);
#113=EDGE_LOOP('',(#112));
#114=FACE_BOUND('',#113,.T.);
#115=ADVANCED_FACE('',(#111,#114),#100,.T.);
#116=CARTESIAN_POINT('',(-33.666511603813241,0.0,0.0));
#117=DIRECTION('',(1.0,0.0,0.0));
#118=DIRECTION('',(0.0,1.0,0.0));
#119=AXIS2_PLACEMENT_3D('',#116,#117,#118);
#120=CONICAL_SURFACE('',#119,66.811789810778862,85.000000000000085);
#121=CARTESIAN_POINT('',(-33.333023207626468,70.623579621557724,0.0));
#122=VERTEX_POINT('',#121);
#123=CARTESIAN_POINT('',(-33.333023207626468,0.0,0.0));
#124=DIRECTION('',(1.0,0.0,0.0));
#125=DIRECTION('',(0.0,1.0,0.0));
#126=AXIS2_PLACEMENT_3D('',#123,#124,#125);
#127=CIRCLE('',#126,70.623579621557724);
#128=EDGE_CURVE('',#122,#122,#127,.T.);
#129=ORIENTED_EDGE('',*,*,#128,.F.);
#130=EDGE_LOOP('',(#129));
#131=FACE_OUTER_BOUND('',#130,.T.);
#132=ORIENTED_EDGE('',*,*,#108,.T.);
#133=EDGE_LOOP('',(#132));
#134=FACE_BOUND('',#133,.T.);
#135=ADVANCED_FACE('',(#131,#134),#120,.T.);
#136=CARTESIAN_POINT('',(-25.166511603813237,0.0,0.0));
#137=DIRECTION('',(1.0,0.0,0.0));
#138=DIRECTION('',(0.0,1.0,0.0));
#139=AXIS2_PLACEMENT_3D('',#136,#137,#138);
#140=CONICAL_SURFACE('',#139,72.811789810778862,14.999999999999977);
#141=CARTESIAN_POINT('',(-17.000000000000014,75.000000000000014,0.0));
#142=VERTEX_POINT('',#141);
#143=CARTESIAN_POINT('',(-17.000000000000014,0.0,0.0));
#144=DIRECTION('',(1.0,0.0,0.0));
#145=DIRECTION('',(0.0,1.0,0.0));
#146=AXIS2_PLACEMENT_3D('',#143,#144,#145);
#147=CIRCLE('',#146,75.000000000000014);
#148=EDGE_CURVE('',#142,#142,#147,.T.);
#149=ORIENTED_EDGE('',*,*,#148,.F.);
#150=EDGE_LOOP('',(#149));
#151=FACE_OUTER_BOUND('',#150,.T.);
#152=ORIENTED_EDGE('',*,*,#128,.T.);
#153=EDGE_LOOP('',(#152));
#154=FACE_BOUND('',#153,.T.);
#155=ADVANCED_FACE('',(#151,#154),#140,.T.);
#156=CARTESIAN_POINT('',(-17.000000000000014,71.750000000000000,0.0));
#157=DIRECTION('',(1.0,0.0,0.0));
#158=DIRECTION('',(0.0,0.0,-1.0));
#159=AXIS2_PLACEMENT_3D('',#156,#157,#158);
#160=PLANE('',#159);
#161=ORIENTED_EDGE('',*,*,#148,.T.);
#162=EDGE_LOOP('',(#161));
#163=FACE_OUTER_BOUND('',#162,.T.);
#164=CARTESIAN_POINT('',(-17.000000000000014,68.500000000000000,0.0));
#165=VERTEX_POINT('',#164);
#166=CARTESIAN_POINT('',(-17.000000000000014,0.0,0.0));
#167=DIRECTION('',(1.0,0.0,0.0));
#168=DIRECTION('',(0.0,1.0,0.0));
#169=AXIS2_PLACEMENT_3D('',#166,#167,#168);
#170=CIRCLE('',#169,68.500000000000000);
#171=EDGE_CURVE('',#165,#165,#170,.T.);
#172=ORIENTED_EDGE('',*,*,#171,.F.);
#173=EDGE_LOOP('',(#172));
#174=FACE_BOUND('',#173,.T.);
#175=ADVANCED_FACE('',(#163,#174),#160,.T.);
#176=CARTESIAN_POINT('',(-14.500000000000014,0.0,0.0));
#177=DIRECTION('',(1.0,0.0,0.0));
#178=DIRECTION('',(0.0,1.0,0.0));
#179=AXIS2_PLACEMENT_3D('',#176,#177,#178);
#180=CYLINDRICAL_SURFACE('',#179,68.500000000000000);
#181=CARTESIAN_POINT('',(-12.000000000000014,68.500000000000014,0.0));
#182=VERTEX_POINT('',#181);
#183=CARTESIAN_POINT('',(-12.000000000000014,0.0,0.0));
#184=DIRECTION('',(1.0,0.0,0.0));
#185=DIRECTION('',(0.0,1.0,0.0));
#186=AXIS2_PLACEMENT_3D('',#183,#184,#185);
#187=CIRCLE('',#186,68.500000000000014);
#188=EDGE_CURVE('',#182,#182,#187,.T.);
#189=ORIENTED_EDGE('',*,*,#188,.F.);
#190=EDGE_LOOP('',(#189));
#191=FACE_OUTER_BOUND('',#190,.T.);
#192=ORIENTED_EDGE('',*,*,#171,.T.);
#193=EDGE_LOOP('',(#192));
#194=FACE_BOUND('',#193,.T.);
#195=ADVANCED_FACE('',(#191,#194),#180,.T.);
#196=CARTESIAN_POINT('',(-8.000000000000011,-7.898711E-015,64.500000000000014));
#197=CARTESIAN_POINT('',(-12.000000000000011,-7.898711E-015,64.500000000000014));
#198=CARTESIAN_POINT('',(-12.000000000000011,-8.388554E-015,68.500000000000014));
#199=CARTESIAN_POINT('',(-12.000000000000011,-8.878396E-015,72.500000000000014));
#200=CARTESIAN_POINT('',(-8.000000000000011,-8.878396E-015,72.500000000000014));
#201=CARTESIAN_POINT('',(-8.000000000000011,-64.500000000000014,64.499999999999986));
#202=CARTESIAN_POINT('',(-12.000000000000011,-64.500000000000014,64.499999999999986));
#203=CARTESIAN_POINT('',(-12.000000000000011,-68.500000000000014,68.499999999999986));
#204=CARTESIAN_POINT('',(-12.000000000000011,-72.500000000000014,72.499999999999986));
#205=CARTESIAN_POINT('',(-8.000000000000011,-72.500000000000014,72.499999999999986));
#206=CARTESIAN_POINT('',(-8.000000000000011,-64.500000000000014,-7.898711E-015));
#207=CARTESIAN_POINT('',(-12.000000000000011,-64.500000000000014,-7.898711E-015));
#208=CARTESIAN_POINT('',(-12.000000000000011,-68.500000000000014,-8.388554E-015));
#209=CARTESIAN_POINT('',(-12.000000000000011,-72.500000000000014,-8.878396E-015));
#210=CARTESIAN_POINT('',(-8.000000000000011,-72.500000000000014,-8.878396E-015));
#211=CARTESIAN_POINT('',(-8.000000000000011,-64.499999999999986,-64.500000000000014));
#212=CARTESIAN_POINT('',(-12.000000000000011,-64.499999999999986,-64.500000000000014));
#213=CARTESIAN_POINT('',(-12.000000000000011,-68.499999999999986,-68.500000000000014));
#214=CARTESIAN_POINT('',(-12.000000000000011,-72.499999999999986,-72.500000000000014));
#215=CARTESIAN_POINT('',(-8.000000000000011,-72.499999999999986,-72.500000000000014));
#216=CARTESIAN_POINT('',(-8.000000000000011,7.898711E-015,-64.500000000000014));
#217=CARTESIAN_POINT('',(-12.000000000000011,7.898711E-015,-64.500000000000014));
#218=CARTESIAN_POINT('',(-12.000000000000011,8.388554E-015,-68.500000000000014));
#219=CARTESIAN_POINT('',(-12.000000000000011,8.878396E-015,-72.500000000000014));
#220=CARTESIAN_POINT('',(-8.000000000000011,8.878396E-015,-72.500000000000014));
#221=CARTESIAN_POINT('',(-8.000000000000011,64.500000000000014,-64.499999999999986));
#222=CARTESIAN_POINT('',(-12.000000000000011,64.500000000000014,-64.499999999999986));
#223=CARTESIAN_POINT('',(-12.000000000000011,68.500000000000014,-68.499999999999986));
#224=CARTESIAN_POINT('',(-12.000000000000011,72.500000000000014,-72.499999999999986));
#225=CARTESIAN_POINT('',(-8.000000000000011,72.500000000000014,-72.499999999999986));
#226=CARTESIAN_POINT('',(-8.000000000000011,64.500000000000014,7.898711E-015));
#227=CARTESIAN_POINT('',(-12.000000000000011,64.500000000000014,7.898711E-015));
#228=CARTESIAN_POINT('',(-12.000000000000011,68.500000000000014,8.388554E-015));
#229=CARTESIAN_POINT('',(-12.000000000000011,72.500000000000014,8.878396E-015));
#230=CARTESIAN_POINT('',(-8.000000000000011,72.500000000000014,8.878396E-015));
#231=CARTESIAN_POINT('',(-8.000000000000011,64.499999999999986,64.500000000000014));
#232=CARTESIAN_POINT('',(-12.000000000000011,64.499999999999986,64.500000000000014));
#233=CARTESIAN_POINT('',(-12.000000000000011,68.499999999999986,68.500000000000014));
#234=CARTESIAN_POINT('',(-12.000000000000011,72.499999999999986,72.500000000000014));
#235=CARTESIAN_POINT('',(-8.000000000000011,72.499999999999986,72.500000000000014));
#236=CARTESIAN_POINT('',(-8.000000000000011,-7.898711E-015,64.500000000000014));
#237=CARTESIAN_POINT('',(-12.000000000000011,-7.898711E-015,64.500000000000014));
#238=CARTESIAN_POINT('',(-12.000000000000011,-8.388554E-015,68.500000000000014));
#239=CARTESIAN_POINT('',(-12.000000000000011,-8.878396E-015,72.500000000000014));
#240=CARTESIAN_POINT('',(-8.000000000000011,-8.878396E-015,72.500000000000014));
#248=(BOUNDED_SURFACE()B_SPLINE_SURFACE(2,2,((#196,#201,#206,#211,#216,#221,#226,#231,#236),(#197,#202,#207,#212,#217,#222,#227,#232,#237),(#198,#203,#208,#213,#218,#223,#228,#233,#238),(#199,#204,#209,#214,#219,#224,#229,#234,#239),(#200,#205,#210,#215,#220,#225,#230,#235,#240)),.UNSPECIFIED.,.F.,.T.,.U.)B_SPLINE_SURFACE_WITH_KNOTS((3,2,3),(3,2,2,2,3),(-3.141592653589793,-1.570796326794897,0.0),(0.0,1.570796326794897,3.141592653589793,4.712388980384690,6.283185307179586),.UNSPECIFIED.)GEOMETRIC_REPRESENTATION_ITEM()RATIONAL_B_SPLINE_SURFACE(((1.0,0.707106781186548,1.0,0.707106781186548,1.0,0.707106781186548,1.0,0.707106781186548,1.0),(0.707106781186543,0.499999999999997,0.707106781186543,0.499999999999997,0.707106781186543,0.499999999999997,0.707106781186543,0.499999999999997,0.707106781186543),(1.0,0.707106781186548,1.0,0.707106781186548,1.0,0.707106781186548,1.0,0.707106781186548,1.0),(0.707106781186543,0.499999999999997,0.707106781186543,0.499999999999997,0.707106781186543,0.499999999999997,0.707106781186543,0.499999999999997,0.707106781186543),(1.0,0.707106781186548,1.0,0.707106781186548,1.0,0.707106781186548,1.0,0.707106781186548,1.0)))REPRESENTATION_ITEM('')SURFACE());
#249=CARTESIAN_POINT('',(-8.000000000000011,64.500000000000014,0.0));
#250=VERTEX_POINT('',#249);
#251=CARTESIAN_POINT('',(-8.000000000000011,0.0,0.0));
#252=DIRECTION('',(1.0,0.0,0.0));
#253=DIRECTION('',(0.0,1.0,0.0));
#254=AXIS2_PLACEMENT_3D('',#251,#252,#253);
#255=CIRCLE('',#254,64.500000000000014);
#256=EDGE_CURVE('',#250,#250,#255,.T.);
#257=ORIENTED_EDGE('',*,*,#256,.F.);
#258=EDGE_LOOP('',(#257));
#259=FACE_OUTER_BOUND('',#258,.T.);
#260=ORIENTED_EDGE('',*,*,#188,.T.);
#261=EDGE_LOOP('',(#260));
#262=FACE_BOUND('',#261,.T.);
#263=ADVANCED_FACE('',(#259,#262),#248,.T.);
#264=CARTESIAN_POINT('',(-4.000000000000018,0.0,0.0));
#265=DIRECTION('',(1.0,0.0,0.0));
#266=DIRECTION('',(0.0,1.0,0.0));
#267=AXIS2_PLACEMENT_3D('',#264,#265,#266);
#268=CYLINDRICAL_SURFACE('',#267,64.500000000000014);
#269=CARTESIAN_POINT('',(-2.448105E-014,64.500000000000000,0.0));
#270=VERTEX_POINT('',#269);
#271=CARTESIAN_POINT('',(-2.448105E-014,0.0,0.0));
#272=DIRECTION('',(1.0,0.0,0.0));
#273=DIRECTION('',(0.0,1.0,0.0));
#274=AXIS2_PLACEMENT_3D('',#271,#272,#273);
#275=CIRCLE('',#274,64.500000000000000);
#276=EDGE_CURVE('',#270,#270,#275,.T.);
#277=ORIENTED_EDGE('',*,*,#276,.F.);
#278=EDGE_LOOP('',(#277));
#279=FACE_OUTER_BOUND('',#278,.T.);
#280=ORIENTED_EDGE('',*,*,#256,.T.);
#281=EDGE_LOOP('',(#280));
#282=FACE_BOUND('',#281,.T.);
#283=ADVANCED_FACE('',(#279,#282),#268,.T.);
#284=CARTESIAN_POINT('',(-2.389786E-014,63.500000000000000,0.0));
#285=DIRECTION('',(1.0,0.0,0.0));
#286=DIRECTION('',(0.0,0.0,-1.0));
#287=AXIS2_PLACEMENT_3D('',#284,#285,#286);
#288=PLANE('',#287);
#289=ORIENTED_EDGE('',*,*,#276,.T.);
#290=EDGE_LOOP('',(#289));
#291=FACE_OUTER_BOUND('',#290,.T.);
#292=ORIENTED_EDGE('',*,*,#91,.F.);
#293=EDGE_LOOP('',(#292));
#294=FACE_BOUND('',#293,.T.);
#295=ADVANCED_FACE('',(#291,#294),#288,.T.);
#296=CLOSED_SHELL('',(#95,#115,#135,#155,#175,#195,#263,#283,#295));
#297=MANIFOLD_SOLID_BREP('',#296);
#298=COLOUR_RGB('Metall - Stahl',0.639216005802155,0.639216005802155,0.686275005340576);
#299=FILL_AREA_STYLE_COLOUR('Metall - Stahl',#298);
#300=FILL_AREA_STYLE('Metall - Stahl',(#299));
#301=SURFACE_STYLE_FILL_AREA(#300);
#302=SURFACE_SIDE_STYLE('Metall - Stahl',(#301));
#303=SURFACE_STYLE_USAGE(.BOTH.,#302);
#304=PRESENTATION_STYLE_ASSIGNMENT((#303));
#305=STYLED_ITEM('',(#304),#297);
#306=MECHANICAL_DESIGN_GEOMETRIC_PRESENTATION_REPRESENTATION('',(#305),#36);
#307=ADVANCED_BREP_SHAPE_REPRESENTATION('ABSR',(#297),#36);
#308=SHAPE_REPRESENTATION_RELATIONSHIP('SRR','None',#307,#41);
ENDSEC;
END-ISO-10303-21;
