ISO-10303-21;
HEADER;
/* Generated by software containing ST-Developer
 * from STEP Tools, Inc. (www.steptools.com) 
 */

FILE_DESCRIPTION(
/* description */ (''),
/* implementation_level */ '2;1');

FILE_NAME(
/* name */ 
'\\\\dwpt-server\\Bedrijf\\2. PROJECTEN\\2017\\PRO.1703.01\\3. ONTWERP
\\PRO.1703.01 - 0\\2. PARTS\\200 PIPING\\Concentrisch verloop\\Concent
risch verloop - 2.5 x 1.5inch.stp',
/* time_stamp */ '2019-11-11T13:24:50+01:00',
/* author */ ('svddonk'),
/* organization */ ('D&W PROCESS TECHNOLOGY'),
/* preprocessor_version */ 'ST-DEVELOPER v16.5',
/* originating_system */ 'Autodesk Inventor 2017',
/* authorisation */ 'GZ');

FILE_SCHEMA (('AUTOMOTIVE_DESIGN { 1 0 10303 214 3 1 1 }'));
ENDSEC;

DATA;
#10=MECHANICAL_DESIGN_GEOMETRIC_PRESENTATION_REPRESENTATION('',(#13),#109);
#11=SHAPE_REPRESENTATION_RELATIONSHIP('SRR','None',#118,#12);
#12=ADVANCED_BREP_SHAPE_REPRESENTATION('',(#14),#108);
#13=STYLED_ITEM('',(#127),#14);
#14=MANIFOLD_SOLID_BREP('Solid1',#59);
#15=CONICAL_SURFACE('',#70,23.75,14.8199180074326);
#16=CONICAL_SURFACE('',#74,25.4,14.8199180074326);
#17=FACE_BOUND('',#26,.T.);
#18=FACE_BOUND('',#28,.T.);
#19=FACE_BOUND('',#30,.T.);
#20=FACE_BOUND('',#32,.T.);
#21=FACE_OUTER_BOUND('',#25,.T.);
#22=FACE_OUTER_BOUND('',#27,.T.);
#23=FACE_OUTER_BOUND('',#29,.T.);
#24=FACE_OUTER_BOUND('',#31,.T.);
#25=EDGE_LOOP('',(#45));
#26=EDGE_LOOP('',(#46));
#27=EDGE_LOOP('',(#47));
#28=EDGE_LOOP('',(#48));
#29=EDGE_LOOP('',(#49));
#30=EDGE_LOOP('',(#50));
#31=EDGE_LOOP('',(#51));
#32=EDGE_LOOP('',(#52));
#33=CIRCLE('',#68,31.75);
#34=CIRCLE('',#69,30.1);
#35=CIRCLE('',#71,17.4);
#36=CIRCLE('',#73,19.05);
#37=VERTEX_POINT('',#95);
#38=VERTEX_POINT('',#97);
#39=VERTEX_POINT('',#100);
#40=VERTEX_POINT('',#103);
#41=EDGE_CURVE('',#37,#37,#33,.T.);
#42=EDGE_CURVE('',#38,#38,#34,.T.);
#43=EDGE_CURVE('',#39,#39,#35,.T.);
#44=EDGE_CURVE('',#40,#40,#36,.T.);
#45=ORIENTED_EDGE('',*,*,#41,.T.);
#46=ORIENTED_EDGE('',*,*,#42,.F.);
#47=ORIENTED_EDGE('',*,*,#43,.F.);
#48=ORIENTED_EDGE('',*,*,#42,.T.);
#49=ORIENTED_EDGE('',*,*,#44,.F.);
#50=ORIENTED_EDGE('',*,*,#43,.T.);
#51=ORIENTED_EDGE('',*,*,#41,.F.);
#52=ORIENTED_EDGE('',*,*,#44,.T.);
#53=PLANE('',#67);
#54=PLANE('',#72);
#55=ADVANCED_FACE('',(#21,#17),#53,.T.);
#56=ADVANCED_FACE('',(#22,#18),#15,.F.);
#57=ADVANCED_FACE('',(#23,#19),#54,.T.);
#58=ADVANCED_FACE('',(#24,#20),#16,.T.);
#59=CLOSED_SHELL('',(#55,#56,#57,#58));
#60=DATE_TIME_ROLE('creation_date');
#61=APPLIED_DATE_AND_TIME_ASSIGNMENT(#62,#60,(#120));
#62=DATE_AND_TIME(#63,#64);
#63=CALENDAR_DATE(2017,6,3);
#64=LOCAL_TIME(13,19,28.,#65);
#65=COORDINATED_UNIVERSAL_TIME_OFFSET(0,0,.BEHIND.);
#66=AXIS2_PLACEMENT_3D('placement',#93,#75,#76);
#67=AXIS2_PLACEMENT_3D('',#94,#77,#78);
#68=AXIS2_PLACEMENT_3D('',#96,#79,#80);
#69=AXIS2_PLACEMENT_3D('',#98,#81,#82);
#70=AXIS2_PLACEMENT_3D('',#99,#83,#84);
#71=AXIS2_PLACEMENT_3D('',#101,#85,#86);
#72=AXIS2_PLACEMENT_3D('',#102,#87,#88);
#73=AXIS2_PLACEMENT_3D('',#104,#89,#90);
#74=AXIS2_PLACEMENT_3D('',#105,#91,#92);
#75=DIRECTION('axis',(0.,0.,1.));
#76=DIRECTION('refdir',(1.,0.,0.));
#77=DIRECTION('center_axis',(1.83697019872103E-16,-1.,0.));
#78=DIRECTION('ref_axis',(0.,0.,-1.));
#79=DIRECTION('center_axis',(1.83697019872103E-16,-1.,0.));
#80=DIRECTION('ref_axis',(1.,1.83670551085372E-16,0.));
#81=DIRECTION('center_axis',(1.83697019872103E-16,-1.,0.));
#82=DIRECTION('ref_axis',(1.,1.83670551085372E-16,0.));
#83=DIRECTION('center_axis',(1.83697019872103E-16,-1.,0.));
#84=DIRECTION('ref_axis',(1.,1.83670551085373E-16,0.));
#85=DIRECTION('center_axis',(1.83697019872103E-16,-1.,0.));
#86=DIRECTION('ref_axis',(1.,1.83670551085372E-16,0.));
#87=DIRECTION('center_axis',(-1.83697019872103E-16,1.,0.));
#88=DIRECTION('ref_axis',(0.,0.,1.));
#89=DIRECTION('center_axis',(1.83697019872103E-16,-1.,0.));
#90=DIRECTION('ref_axis',(1.,1.83670551085372E-16,0.));
#91=DIRECTION('center_axis',(1.83697019872103E-16,-1.,0.));
#92=DIRECTION('ref_axis',(1.,1.83670551085372E-16,0.));
#93=CARTESIAN_POINT('',(0.,0.,0.));
#94=CARTESIAN_POINT('Origin',(30.925,0.,0.));
#95=CARTESIAN_POINT('',(31.75,0.,0.));
#96=CARTESIAN_POINT('Origin',(1.0708170490793E-30,-5.82867087928207E-15,
0.));
#97=CARTESIAN_POINT('',(30.1,0.,0.));
#98=CARTESIAN_POINT('Origin',(1.01496508069207E-30,-5.52509427098613E-15,
0.));
#99=CARTESIAN_POINT('Origin',(-4.40872847693047E-15,24.,0.));
#100=CARTESIAN_POINT('',(17.4,48.,0.));
#101=CARTESIAN_POINT('Origin',(-8.81745695386094E-15,48.,0.));
#102=CARTESIAN_POINT('Origin',(18.225,48.,0.));
#103=CARTESIAN_POINT('',(19.05,48.,0.));
#104=CARTESIAN_POINT('Origin',(-8.81745695386094E-15,48.,0.));
#105=CARTESIAN_POINT('Origin',(-4.40872847693047E-15,24.,0.));
#106=UNCERTAINTY_MEASURE_WITH_UNIT(LENGTH_MEASURE(0.01),#110,
'DISTANCE_ACCURACY_VALUE',
'Maximum model space distance between geometric entities at asserted c
onnectivities');
#107=UNCERTAINTY_MEASURE_WITH_UNIT(LENGTH_MEASURE(1.E-6),#110,
'DISTANCE_ACCURACY_VALUE',
'Maximum model space distance between geometric entities at asserted c
onnectivities');
#108=(
GEOMETRIC_REPRESENTATION_CONTEXT(3)
GLOBAL_UNCERTAINTY_ASSIGNED_CONTEXT((#106))
GLOBAL_UNIT_ASSIGNED_CONTEXT((#110,#113,#111))
REPRESENTATION_CONTEXT('','3D')
);
#109=(
GEOMETRIC_REPRESENTATION_CONTEXT(3)
GLOBAL_UNCERTAINTY_ASSIGNED_CONTEXT((#107))
GLOBAL_UNIT_ASSIGNED_CONTEXT((#110,#113,#111))
REPRESENTATION_CONTEXT('','3D')
);
#110=(
LENGTH_UNIT()
NAMED_UNIT(*)
SI_UNIT(.MILLI.,.METRE.)
);
#111=(
NAMED_UNIT(*)
SI_UNIT($,.STERADIAN.)
SOLID_ANGLE_UNIT()
);
#112=DIMENSIONAL_EXPONENTS(0.,0.,0.,0.,0.,0.,0.);
#113=(
CONVERSION_BASED_UNIT('degree',#115)
NAMED_UNIT(#112)
PLANE_ANGLE_UNIT()
);
#114=(
NAMED_UNIT(*)
PLANE_ANGLE_UNIT()
SI_UNIT($,.RADIAN.)
);
#115=PLANE_ANGLE_MEASURE_WITH_UNIT(PLANE_ANGLE_MEASURE(0.01745329252),#114);
#116=SHAPE_DEFINITION_REPRESENTATION(#117,#118);
#117=PRODUCT_DEFINITION_SHAPE('',$,#120);
#118=SHAPE_REPRESENTATION('',(#66),#108);
#119=PRODUCT_DEFINITION_CONTEXT('part definition',#124,'design');
#120=PRODUCT_DEFINITION('Concentrisch verloop - 2.5 x 1.5inch',
'Concentrisch verloop - iPart',#121,#119);
#121=PRODUCT_DEFINITION_FORMATION('',$,#126);
#122=PRODUCT_RELATED_PRODUCT_CATEGORY('Concentrisch verloop - iPart',
'Concentrisch verloop - iPart',(#126));
#123=APPLICATION_PROTOCOL_DEFINITION('international standard',
'automotive_design',2009,#124);
#124=APPLICATION_CONTEXT(
'Core Data for Automotive Mechanical Design Process');
#125=PRODUCT_CONTEXT('part definition',#124,'mechanical');
#126=PRODUCT('Concentrisch verloop - 2.5 x 1.5inch',
'Concentrisch verloop - iPart',$,(#125));
#127=PRESENTATION_STYLE_ASSIGNMENT((#128));
#128=SURFACE_STYLE_USAGE(.BOTH.,#129);
#129=SURFACE_SIDE_STYLE('',(#130));
#130=SURFACE_STYLE_FILL_AREA(#131);
#131=FILL_AREA_STYLE('',(#132));
#132=FILL_AREA_STYLE_COLOUR('',#133);
#133=COLOUR_RGB('',0.63921568627451,0.63921568627451,0.662745098039216);
ENDSEC;
END-ISO-10303-21;
