ISO-10303-21;
HEADER;
/****************************************************************
 * Generated by software with PDE/Lib inside                    *
 * PDElib Version v51a, created Thu 12/14/2006                  *
 * International Technegroup Inc. (www.iti-oh.com)              *
 ****************************************************************/
FILE_DESCRIPTION((''),'2;1');
FILE_NAME('T:\\Arbeitspl\S\dtze\\Aushilfe\\KPeters\\3D\\Steps 08_10\\11308\\11308015x.stp','2010-08-03T14:36:51',('thilbrands'),(''),'Autodesk Inventor 2008','Autodesk Inventor 2008','');
FILE_SCHEMA(('AUTOMOTIVE_DESIGN { 1 0 10303 214 1 1 1 1 }'));
ENDSEC;
DATA;
#5=APPLICATION_CONTEXT('automotive design');
#6=APPLICATION_PROTOCOL_DEFINITION('International Standard','automotive_design',2001,#5);
#7=PRODUCT_CONTEXT('',#5,'mechanical');
#8=PRODUCT('113080101','113080101',$,(#7));
#9=PRODUCT_RELATED_PRODUCT_CATEGORY('part',$,(#8));
#10=PRODUCT_DEFINITION_FORMATION('',$,#8);
#11=PRODUCT_DEFINITION_CONTEXT('part definition',#5,'design');
#12=PRODUCT_DEFINITION('',$,#10,#11);
#18=(NAMED_UNIT(*)PLANE_ANGLE_UNIT()SI_UNIT($,.RADIAN.));
#19=DIMENSIONAL_EXPONENTS(0.0,0.0,0.0,0.0,0.0,0.0,0.0);
#20=PLANE_ANGLE_MEASURE_WITH_UNIT(PLANE_ANGLE_MEASURE(0.017453292500000),#18);
#24=(CONVERSION_BASED_UNIT('DEGREE',#20)NAMED_UNIT(#19)PLANE_ANGLE_UNIT());
#28=(NAMED_UNIT(*)SI_UNIT($,.STERADIAN.)SOLID_ANGLE_UNIT());
#32=(LENGTH_UNIT()NAMED_UNIT(*)SI_UNIT(.MILLI.,.METRE.));
#34=UNCERTAINTY_MEASURE_WITH_UNIT(LENGTH_MEASURE(0.010000000000000),#32,'DISTANCE_ACCURACY_VALUE','');
#36=(GEOMETRIC_REPRESENTATION_CONTEXT(3)GLOBAL_UNCERTAINTY_ASSIGNED_CONTEXT((#34))GLOBAL_UNIT_ASSIGNED_CONTEXT((#24,#28,#32))REPRESENTATION_CONTEXT('None','None'));
#37=AXIS2_PLACEMENT_3D('',#38,#39,#40);
#38=CARTESIAN_POINT('',(0.0,0.0,0.0));
#39=DIRECTION('',(0.0,0.0,1.0));
#40=DIRECTION('',(1.0,0.0,0.0));
#41=SHAPE_REPRESENTATION('',(#37),#36);
#42=PRODUCT_DEFINITION_SHAPE('','',#12);
#43=SHAPE_DEFINITION_REPRESENTATION(#42,#41);
#49=(NAMED_UNIT(*)PLANE_ANGLE_UNIT()SI_UNIT($,.RADIAN.));
#50=DIMENSIONAL_EXPONENTS(0.0,0.0,0.0,0.0,0.0,0.0,0.0);
#51=PLANE_ANGLE_MEASURE_WITH_UNIT(PLANE_ANGLE_MEASURE(0.017453292500000),#49);
#55=(CONVERSION_BASED_UNIT('DEGREE',#51)NAMED_UNIT(#50)PLANE_ANGLE_UNIT());
#59=(NAMED_UNIT(*)SI_UNIT($,.STERADIAN.)SOLID_ANGLE_UNIT());
#63=(LENGTH_UNIT()NAMED_UNIT(*)SI_UNIT(.MILLI.,.METRE.));
#65=UNCERTAINTY_MEASURE_WITH_UNIT(LENGTH_MEASURE(0.000001000000000),#63,'DISTANCE_ACCURACY_VALUE','');
#67=(GEOMETRIC_REPRESENTATION_CONTEXT(3)GLOBAL_UNCERTAINTY_ASSIGNED_CONTEXT((#65))GLOBAL_UNIT_ASSIGNED_CONTEXT((#55,#59,#63))REPRESENTATION_CONTEXT('','3D'));
#68=CARTESIAN_POINT('',(-20.250000000000004,0.0,0.0));
#69=DIRECTION('',(1.0,0.0,0.0));
#70=DIRECTION('',(0.0,-1.0,0.0));
#71=AXIS2_PLACEMENT_3D('',#68,#69,#70);
#72=CONICAL_SURFACE('',#71,16.250000000000000,45.000000000000085);
#73=CARTESIAN_POINT('',(-21.0,15.499999999999998,1.898140E-015));
#74=VERTEX_POINT('',#73);
#75=CARTESIAN_POINT('',(-21.0,0.0,0.0));
#76=DIRECTION('',(1.0,0.0,0.0));
#77=DIRECTION('',(0.0,-1.0,0.0));
#78=AXIS2_PLACEMENT_3D('',#75,#76,#77);
#79=CIRCLE('',#78,15.499999999999998);
#80=EDGE_CURVE('',#74,#74,#79,.T.);
#81=ORIENTED_EDGE('',*,*,#80,.T.);
#82=EDGE_LOOP('',(#81));
#83=FACE_OUTER_BOUND('',#82,.T.);
#84=CARTESIAN_POINT('',(-19.500000000000000,17.0,-2.081831E-015));
#85=VERTEX_POINT('',#84);
#86=CARTESIAN_POINT('',(-19.500000000000000,0.0,0.0));
#87=DIRECTION('',(-1.0,0.0,0.0));
#88=DIRECTION('',(0.0,-1.0,0.0));
#89=AXIS2_PLACEMENT_3D('',#86,#87,#88);
#90=CIRCLE('',#89,17.0);
#91=EDGE_CURVE('',#85,#85,#90,.T.);
#92=ORIENTED_EDGE('',*,*,#91,.T.);
#93=EDGE_LOOP('',(#92));
#94=FACE_BOUND('',#93,.T.);
#95=ADVANCED_FACE('',(#83,#94),#72,.T.);
#96=CARTESIAN_POINT('',(-21.0,15.485898384862240,0.0));
#97=DIRECTION('',(-1.0,0.0,0.0));
#98=DIRECTION('',(0.0,0.0,1.0));
#99=AXIS2_PLACEMENT_3D('',#96,#97,#98);
#100=PLANE('',#99);
#101=ORIENTED_EDGE('',*,*,#80,.F.);
#102=EDGE_LOOP('',(#101));
#103=FACE_OUTER_BOUND('',#102,.T.);
#104=CARTESIAN_POINT('',(-21.0,13.971796769724483,0.0));
#105=VERTEX_POINT('',#104);
#106=CARTESIAN_POINT('',(-21.0,0.0,0.0));
#107=DIRECTION('',(1.0,0.0,0.0));
#108=DIRECTION('',(0.0,1.0,0.0));
#109=AXIS2_PLACEMENT_3D('',#106,#107,#108);
#110=CIRCLE('',#109,13.971796769724483);
#111=EDGE_CURVE('',#105,#105,#110,.T.);
#112=ORIENTED_EDGE('',*,*,#111,.T.);
#113=EDGE_LOOP('',(#112));
#114=FACE_BOUND('',#113,.T.);
#115=ADVANCED_FACE('',(#103,#114),#100,.T.);
#116=CARTESIAN_POINT('',(-15.0,0.0,0.0));
#117=DIRECTION('',(1.0,0.0,0.0));
#118=DIRECTION('',(0.0,1.0,0.0));
#119=AXIS2_PLACEMENT_3D('',#116,#117,#118);
#120=CYLINDRICAL_SURFACE('',#119,17.0);
#121=CARTESIAN_POINT('',(-9.0,17.000000000000004,0.0));
#122=VERTEX_POINT('',#121);
#123=CARTESIAN_POINT('',(-9.0,0.0,0.0));
#124=DIRECTION('',(1.0,0.0,0.0));
#125=DIRECTION('',(0.0,1.0,0.0));
#126=AXIS2_PLACEMENT_3D('',#123,#124,#125);
#127=CIRCLE('',#126,17.000000000000004);
#128=EDGE_CURVE('',#122,#122,#127,.T.);
#129=ORIENTED_EDGE('',*,*,#128,.F.);
#130=EDGE_LOOP('',(#129));
#131=FACE_OUTER_BOUND('',#130,.T.);
#132=ORIENTED_EDGE('',*,*,#91,.F.);
#133=EDGE_LOOP('',(#132));
#134=FACE_BOUND('',#133,.T.);
#135=ADVANCED_FACE('',(#131,#134),#120,.T.);
#136=CARTESIAN_POINT('',(-6.000777458949607,0.0,0.0));
#137=DIRECTION('',(1.0,0.0,0.0));
#138=DIRECTION('',(0.0,1.0,0.0));
#139=AXIS2_PLACEMENT_3D('',#136,#137,#138);
#140=CONICAL_SURFACE('',#139,8.525000000000002,5.000000000000070);
#141=CARTESIAN_POINT('',(-12.001554917899213,8.000000000000004,0.0));
#142=VERTEX_POINT('',#141);
#143=CARTESIAN_POINT('',(-12.001554917899213,0.0,0.0));
#144=DIRECTION('',(1.0,0.0,0.0));
#145=DIRECTION('',(0.0,1.0,0.0));
#146=AXIS2_PLACEMENT_3D('',#143,#144,#145);
#147=CIRCLE('',#146,8.000000000000004);
#148=EDGE_CURVE('',#142,#142,#147,.T.);
#149=ORIENTED_EDGE('',*,*,#148,.F.);
#150=EDGE_LOOP('',(#149));
#151=FACE_OUTER_BOUND('',#150,.T.);
#152=CARTESIAN_POINT('',(6.162976E-031,9.050000000000001,0.0));
#153=VERTEX_POINT('',#152);
#154=CARTESIAN_POINT('',(0.0,0.0,0.0));
#155=DIRECTION('',(1.0,0.0,0.0));
#156=DIRECTION('',(0.0,1.0,0.0));
#157=AXIS2_PLACEMENT_3D('',#154,#155,#156);
#158=CIRCLE('',#157,9.050000000000001);
#159=EDGE_CURVE('',#153,#153,#158,.T.);
#160=ORIENTED_EDGE('',*,*,#159,.T.);
#161=EDGE_LOOP('',(#160));
#162=FACE_BOUND('',#161,.T.);
#163=ADVANCED_FACE('',(#151,#162),#140,.F.);
#164=CARTESIAN_POINT('',(-14.500777458949607,0.0,0.0));
#165=DIRECTION('',(1.0,0.0,0.0));
#166=DIRECTION('',(0.0,1.0,0.0));
#167=AXIS2_PLACEMENT_3D('',#164,#165,#166);
#168=CYLINDRICAL_SURFACE('',#167,8.000000000000002);
#169=CARTESIAN_POINT('',(-17.0,7.999999999999999,0.0));
#170=VERTEX_POINT('',#169);
#171=CARTESIAN_POINT('',(-17.0,0.0,0.0));
#172=DIRECTION('',(1.0,0.0,0.0));
#173=DIRECTION('',(0.0,1.0,0.0));
#174=AXIS2_PLACEMENT_3D('',#171,#172,#173);
#175=CIRCLE('',#174,7.999999999999999);
#176=EDGE_CURVE('',#170,#170,#175,.T.);
#177=ORIENTED_EDGE('',*,*,#176,.F.);
#178=EDGE_LOOP('',(#177));
#179=FACE_OUTER_BOUND('',#178,.T.);
#180=ORIENTED_EDGE('',*,*,#148,.T.);
#181=EDGE_LOOP('',(#180));
#182=FACE_BOUND('',#181,.T.);
#183=ADVANCED_FACE('',(#179,#182),#168,.F.);
#184=CARTESIAN_POINT('',(-17.0,8.499999999999998,0.0));
#185=DIRECTION('',(-1.0,0.0,0.0));
#186=DIRECTION('',(0.0,0.0,1.0));
#187=AXIS2_PLACEMENT_3D('',#184,#185,#186);
#188=PLANE('',#187);
#189=CARTESIAN_POINT('',(-17.0,9.0,0.0));
#190=VERTEX_POINT('',#189);
#191=CARTESIAN_POINT('',(-17.0,0.0,0.0));
#192=DIRECTION('',(1.0,0.0,0.0));
#193=DIRECTION('',(0.0,1.0,0.0));
#194=AXIS2_PLACEMENT_3D('',#191,#192,#193);
#195=CIRCLE('',#194,9.0);
#196=EDGE_CURVE('',#190,#190,#195,.T.);
#197=ORIENTED_EDGE('',*,*,#196,.F.);
#198=EDGE_LOOP('',(#197));
#199=FACE_OUTER_BOUND('',#198,.T.);
#200=ORIENTED_EDGE('',*,*,#176,.T.);
#201=EDGE_LOOP('',(#200));
#202=FACE_BOUND('',#201,.T.);
#203=ADVANCED_FACE('',(#199,#202),#188,.T.);
#204=CARTESIAN_POINT('',(-15.500000000000004,0.0,0.0));
#205=DIRECTION('',(1.0,0.0,0.0));
#206=DIRECTION('',(0.0,1.0,0.0));
#207=AXIS2_PLACEMENT_3D('',#204,#205,#206);
#208=CYLINDRICAL_SURFACE('',#207,9.0);
#209=CARTESIAN_POINT('',(-14.000000000000002,9.000000000000002,0.0));
#210=VERTEX_POINT('',#209);
#211=CARTESIAN_POINT('',(-14.000000000000002,0.0,0.0));
#212=DIRECTION('',(1.0,0.0,0.0));
#213=DIRECTION('',(0.0,1.0,0.0));
#214=AXIS2_PLACEMENT_3D('',#211,#212,#213);
#215=CIRCLE('',#214,9.000000000000002);
#216=EDGE_CURVE('',#210,#210,#215,.T.);
#217=ORIENTED_EDGE('',*,*,#216,.F.);
#218=EDGE_LOOP('',(#217));
#219=FACE_OUTER_BOUND('',#218,.T.);
#220=ORIENTED_EDGE('',*,*,#196,.T.);
#221=EDGE_LOOP('',(#220));
#222=FACE_BOUND('',#221,.T.);
#223=ADVANCED_FACE('',(#219,#222),#208,.T.);
#224=CARTESIAN_POINT('',(-14.000000000000004,10.950000000000003,0.0));
#225=DIRECTION('',(-1.0,0.0,0.0));
#226=DIRECTION('',(0.0,0.0,1.0));
#227=AXIS2_PLACEMENT_3D('',#224,#225,#226);
#228=PLANE('',#227);
#229=CARTESIAN_POINT('',(-14.000000000000004,12.900000000000000,0.0));
#230=VERTEX_POINT('',#229);
#231=CARTESIAN_POINT('',(-14.000000000000004,0.0,0.0));
#232=DIRECTION('',(1.0,0.0,0.0));
#233=DIRECTION('',(0.0,1.0,0.0));
#234=AXIS2_PLACEMENT_3D('',#231,#232,#233);
#235=CIRCLE('',#234,12.900000000000000);
#236=EDGE_CURVE('',#230,#230,#235,.T.);
#237=ORIENTED_EDGE('',*,*,#236,.F.);
#238=EDGE_LOOP('',(#237));
#239=FACE_OUTER_BOUND('',#238,.T.);
#240=ORIENTED_EDGE('',*,*,#216,.T.);
#241=EDGE_LOOP('',(#240));
#242=FACE_BOUND('',#241,.T.);
#243=ADVANCED_FACE('',(#239,#242),#228,.T.);
#244=CARTESIAN_POINT('',(-15.500000000000004,0.0,0.0));
#245=DIRECTION('',(1.0,0.0,0.0));
#246=DIRECTION('',(0.0,1.0,0.0));
#247=AXIS2_PLACEMENT_3D('',#244,#245,#246);
#248=CYLINDRICAL_SURFACE('',#247,12.899999999999999);
#249=CARTESIAN_POINT('',(-17.000000000000004,12.899999999999995,0.0));
#250=VERTEX_POINT('',#249);
#251=CARTESIAN_POINT('',(-17.000000000000004,0.0,0.0));
#252=DIRECTION('',(1.0,0.0,0.0));
#253=DIRECTION('',(0.0,1.0,0.0));
#254=AXIS2_PLACEMENT_3D('',#251,#252,#253);
#255=CIRCLE('',#254,12.899999999999995);
#256=EDGE_CURVE('',#250,#250,#255,.T.);
#257=ORIENTED_EDGE('',*,*,#256,.F.);
#258=EDGE_LOOP('',(#257));
#259=FACE_OUTER_BOUND('',#258,.T.);
#260=ORIENTED_EDGE('',*,*,#236,.T.);
#261=EDGE_LOOP('',(#260));
#262=FACE_BOUND('',#261,.T.);
#263=ADVANCED_FACE('',(#259,#262),#248,.F.);
#264=CARTESIAN_POINT('',(-19.000000000000004,0.0,0.0));
#265=DIRECTION('',(-1.0,0.0,0.0));
#266=DIRECTION('',(0.0,1.0,0.0));
#267=AXIS2_PLACEMENT_3D('',#264,#265,#266);
#268=CONICAL_SURFACE('',#267,13.435898384862240,14.999999999999961);
#269=ORIENTED_EDGE('',*,*,#111,.F.);
#270=EDGE_LOOP('',(#269));
#271=FACE_OUTER_BOUND('',#270,.T.);
#272=ORIENTED_EDGE('',*,*,#256,.T.);
#273=EDGE_LOOP('',(#272));
#274=FACE_BOUND('',#273,.T.);
#275=ADVANCED_FACE('',(#271,#274),#268,.F.);
#276=CARTESIAN_POINT('',(-8.622296988544282,0.0,0.0));
#277=DIRECTION('',(-1.0,0.0,0.0));
#278=DIRECTION('',(0.0,1.0,0.0));
#279=AXIS2_PLACEMENT_3D('',#276,#277,#278);
#280=CONICAL_SURFACE('',#279,14.857939777916338,80.000000000000028);
#281=CARTESIAN_POINT('',(-8.244593977088565,12.715879555832672,0.0));
#282=VERTEX_POINT('',#281);
#283=CARTESIAN_POINT('',(-8.244593977088565,0.0,0.0));
#284=DIRECTION('',(1.0,0.0,0.0));
#285=DIRECTION('',(0.0,1.0,0.0));
#286=AXIS2_PLACEMENT_3D('',#283,#284,#285);
#287=CIRCLE('',#286,12.715879555832672);
#288=EDGE_CURVE('',#282,#282,#287,.T.);
#289=ORIENTED_EDGE('',*,*,#288,.F.);
#290=EDGE_LOOP('',(#289));
#291=FACE_OUTER_BOUND('',#290,.T.);
#292=ORIENTED_EDGE('',*,*,#128,.T.);
#293=EDGE_LOOP('',(#292));
#294=FACE_BOUND('',#293,.T.);
#295=ADVANCED_FACE('',(#291,#294),#280,.T.);
#296=CARTESIAN_POINT('',(-5.782574594558044,-1.304206E-015,10.649999999999999));
#297=CARTESIAN_POINT('',(-8.282574594558044,-1.304206E-015,10.649999999999999));
#298=CARTESIAN_POINT('',(-8.282574594558044,-1.610357E-015,13.149999999999999));
#299=CARTESIAN_POINT('',(-8.282574594558044,-1.916509E-015,15.649999999999999));
#300=CARTESIAN_POINT('',(-5.782574594558044,-1.916509E-015,15.649999999999999));
#301=CARTESIAN_POINT('',(-5.782574594558044,-10.649999999999999,10.649999999999995));
#302=CARTESIAN_POINT('',(-8.282574594558044,-10.649999999999999,10.649999999999995));
#303=CARTESIAN_POINT('',(-8.282574594558044,-13.149999999999995,13.149999999999993));
#304=CARTESIAN_POINT('',(-8.282574594558044,-15.649999999999997,15.649999999999993));
#305=CARTESIAN_POINT('',(-5.782574594558044,-15.649999999999995,15.649999999999993));
#306=CARTESIAN_POINT('',(-5.782574594558044,-10.649999999999999,-1.304206E-015));
#307=CARTESIAN_POINT('',(-8.282574594558044,-10.649999999999999,-1.304206E-015));
#308=CARTESIAN_POINT('',(-8.282574594558044,-13.149999999999999,-1.610357E-015));
#309=CARTESIAN_POINT('',(-8.282574594558044,-15.649999999999999,-1.916509E-015));
#310=CARTESIAN_POINT('',(-5.782574594558044,-15.649999999999999,-1.916509E-015));
#311=CARTESIAN_POINT('',(-5.782574594558044,-10.649999999999995,-10.649999999999999));
#312=CARTESIAN_POINT('',(-8.282574594558044,-10.649999999999995,-10.649999999999999));
#313=CARTESIAN_POINT('',(-8.282574594558044,-13.149999999999993,-13.149999999999995));
#314=CARTESIAN_POINT('',(-8.282574594558044,-15.649999999999993,-15.649999999999997));
#315=CARTESIAN_POINT('',(-5.782574594558044,-15.649999999999993,-15.649999999999995));
#316=CARTESIAN_POINT('',(-5.782574594558044,1.304206E-015,-10.649999999999999));
#317=CARTESIAN_POINT('',(-8.282574594558044,1.304206E-015,-10.649999999999999));
#318=CARTESIAN_POINT('',(-8.282574594558044,1.610357E-015,-13.149999999999999));
#319=CARTESIAN_POINT('',(-8.282574594558044,1.916509E-015,-15.649999999999999));
#320=CARTESIAN_POINT('',(-5.782574594558044,1.916509E-015,-15.649999999999999));
#321=CARTESIAN_POINT('',(-5.782574594558044,10.649999999999999,-10.649999999999995));
#322=CARTESIAN_POINT('',(-8.282574594558044,10.649999999999999,-10.649999999999995));
#323=CARTESIAN_POINT('',(-8.282574594558044,13.149999999999995,-13.149999999999993));
#324=CARTESIAN_POINT('',(-8.282574594558044,15.649999999999997,-15.649999999999993));
#325=CARTESIAN_POINT('',(-5.782574594558044,15.649999999999995,-15.649999999999993));
#326=CARTESIAN_POINT('',(-5.782574594558044,10.649999999999999,1.304206E-015));
#327=CARTESIAN_POINT('',(-8.282574594558044,10.649999999999999,1.304206E-015));
#328=CARTESIAN_POINT('',(-8.282574594558044,13.149999999999999,1.610357E-015));
#329=CARTESIAN_POINT('',(-8.282574594558044,15.649999999999999,1.916509E-015));
#330=CARTESIAN_POINT('',(-5.782574594558044,15.649999999999999,1.916509E-015));
#331=CARTESIAN_POINT('',(-5.782574594558044,10.649999999999995,10.649999999999999));
#332=CARTESIAN_POINT('',(-8.282574594558044,10.649999999999995,10.649999999999999));
#333=CARTESIAN_POINT('',(-8.282574594558044,13.149999999999993,13.149999999999995));
#334=CARTESIAN_POINT('',(-8.282574594558044,15.649999999999993,15.649999999999997));
#335=CARTESIAN_POINT('',(-5.782574594558044,15.649999999999993,15.649999999999995));
#336=CARTESIAN_POINT('',(-5.782574594558044,-1.304206E-015,10.649999999999999));
#337=CARTESIAN_POINT('',(-8.282574594558044,-1.304206E-015,10.649999999999999));
#338=CARTESIAN_POINT('',(-8.282574594558044,-1.610357E-015,13.149999999999999));
#339=CARTESIAN_POINT('',(-8.282574594558044,-1.916509E-015,15.649999999999999));
#340=CARTESIAN_POINT('',(-5.782574594558044,-1.916509E-015,15.649999999999999));
#348=(BOUNDED_SURFACE()B_SPLINE_SURFACE(2,2,((#296,#301,#306,#311,#316,#321,#326,#331,#336),(#297,#302,#307,#312,#317,#322,#327,#332,#337),(#298,#303,#308,#313,#318,#323,#328,#333,#338),(#299,#304,#309,#314,#319,#324,#329,#334,#339),(#300,#305,#310,#315,#320,#325,#330,#335,#340)),.UNSPECIFIED.,.F.,.T.,.U.)B_SPLINE_SURFACE_WITH_KNOTS((3,2,3),(3,2,2,2,3),(-3.141592653589793,-1.570796326794897,0.0),(0.0,1.570796326794897,3.141592653589793,4.712388980384690,6.283185307179586),.UNSPECIFIED.)GEOMETRIC_REPRESENTATION_ITEM()RATIONAL_B_SPLINE_SURFACE(((1.0,0.707106781186548,1.0,0.707106781186548,1.0,0.707106781186548,1.0,0.707106781186548,1.0),(0.707106781186548,0.500000000000000,0.707106781186548,0.500000000000000,0.707106781186548,0.500000000000000,0.707106781186548,0.500000000000000,0.707106781186548),(1.0,0.707106781186548,1.0,0.707106781186548,1.0,0.707106781186548,1.0,0.707106781186548,1.0),(0.707106781186548,0.500000000000000,0.707106781186548,0.500000000000000,0.707106781186548,0.500000000000000,0.707106781186548,0.500000000000000,0.707106781186548),(1.0,0.707106781186548,1.0,0.707106781186548,1.0,0.707106781186548,1.0,0.707106781186548,1.0)))REPRESENTATION_ITEM('')SURFACE());
#349=CARTESIAN_POINT('',(-5.782574594558044,10.649999999999999,0.0));
#350=VERTEX_POINT('',#349);
#351=CARTESIAN_POINT('',(-5.782574594558044,0.0,0.0));
#352=DIRECTION('',(1.0,0.0,0.0));
#353=DIRECTION('',(0.0,1.0,0.0));
#354=AXIS2_PLACEMENT_3D('',#351,#352,#353);
#355=CIRCLE('',#354,10.649999999999999);
#356=EDGE_CURVE('',#350,#350,#355,.T.);
#357=ORIENTED_EDGE('',*,*,#356,.F.);
#358=EDGE_LOOP('',(#357));
#359=FACE_OUTER_BOUND('',#358,.T.);
#360=ORIENTED_EDGE('',*,*,#288,.T.);
#361=EDGE_LOOP('',(#360));
#362=FACE_BOUND('',#361,.T.);
#363=ADVANCED_FACE('',(#359,#362),#348,.T.);
#364=CARTESIAN_POINT('',(-3.353167512630723,0.0,0.0));
#365=DIRECTION('',(1.0,0.0,0.0));
#366=DIRECTION('',(0.0,1.0,0.0));
#367=AXIS2_PLACEMENT_3D('',#364,#365,#366);
#368=CYLINDRICAL_SURFACE('',#367,10.649999999999999);
#369=CARTESIAN_POINT('',(-0.923760430703401,10.649999999999999,0.0));
#370=VERTEX_POINT('',#369);
#371=CARTESIAN_POINT('',(-0.923760430703401,0.0,0.0));
#372=DIRECTION('',(1.0,0.0,0.0));
#373=DIRECTION('',(0.0,1.0,0.0));
#374=AXIS2_PLACEMENT_3D('',#371,#372,#373);
#375=CIRCLE('',#374,10.649999999999999);
#376=EDGE_CURVE('',#370,#370,#375,.T.);
#377=ORIENTED_EDGE('',*,*,#376,.F.);
#378=EDGE_LOOP('',(#377));
#379=FACE_OUTER_BOUND('',#378,.T.);
#380=ORIENTED_EDGE('',*,*,#356,.T.);
#381=EDGE_LOOP('',(#380));
#382=FACE_BOUND('',#381,.T.);
#383=ADVANCED_FACE('',(#379,#382),#368,.T.);
#384=CARTESIAN_POINT('',(-0.461880215351701,0.0,0.0));
#385=DIRECTION('',(-1.0,0.0,0.0));
#386=DIRECTION('',(0.0,1.0,0.0));
#387=AXIS2_PLACEMENT_3D('',#384,#385,#386);
#388=CONICAL_SURFACE('',#387,9.850000000000001,59.999999999999972);
#389=ORIENTED_EDGE('',*,*,#159,.F.);
#390=EDGE_LOOP('',(#389));
#391=FACE_OUTER_BOUND('',#390,.T.);
#392=ORIENTED_EDGE('',*,*,#376,.T.);
#393=EDGE_LOOP('',(#392));
#394=FACE_BOUND('',#393,.T.);
#395=ADVANCED_FACE('',(#391,#394),#388,.T.);
#396=CLOSED_SHELL('',(#95,#115,#135,#163,#183,#203,#223,#243,#263,#275,#295,#363,#383,#395));
#397=MANIFOLD_SOLID_BREP('',#396);
#398=COLOUR_RGB('Metall - Stahl',0.639216005802155,0.639216005802155,0.686275005340576);
#399=FILL_AREA_STYLE_COLOUR('Metall - Stahl',#398);
#400=FILL_AREA_STYLE('Metall - Stahl',(#399));
#401=SURFACE_STYLE_FILL_AREA(#400);
#402=SURFACE_SIDE_STYLE('Metall - Stahl',(#401));
#403=SURFACE_STYLE_USAGE(.BOTH.,#402);
#404=PRESENTATION_STYLE_ASSIGNMENT((#403));
#405=STYLED_ITEM('',(#404),#397);
#406=MECHANICAL_DESIGN_GEOMETRIC_PRESENTATION_REPRESENTATION('',(#405),#36);
#407=ADVANCED_BREP_SHAPE_REPRESENTATION('ABSR',(#397),#36);
#408=SHAPE_REPRESENTATION_RELATIONSHIP('SRR','None',#407,#41);
ENDSEC;
END-ISO-10303-21;
