ISO-10303-21;
HEADER;
/****************************************************************
 * Generated by software with PDE/Lib inside                    *
 * PDElib Version v51a, created Thu 01/14/2010                  *
 * ITI Transcendata (http://www.transcendata.com/)              *
 ****************************************************************/
FILE_DESCRIPTION((''),'2;1');
FILE_NAME('P:\\2. PROJECTEN\\2017\\PRO.1703.01\\3. ONTWERP\\PRO.1703.01 - 0\\2. PARTS\\200 PIPING\\T-stuk lang - 2.5inch.stp','2017-03-06T11:47:57',('Engineer'),(''),'Autodesk Inventor 2011','Autodesk Inventor 2011','');
FILE_SCHEMA(('AUTOMOTIVE_DESIGN { 1 0 10303 214 1 1 1 1 }'));
ENDSEC;
DATA;
#5=APPLICATION_CONTEXT('automotive design');
#6=APPLICATION_PROTOCOL_DEFINITION('International Standard','automotive_design',2001,#5);
#7=PRODUCT_CONTEXT('',#5,'mechanical');
#8=PRODUCT('T-stuk lang iPart','T-stuk lang iPart',$,(#7));
#9=PRODUCT_RELATED_PRODUCT_CATEGORY('part',$,(#8));
#10=PRODUCT_DEFINITION_FORMATION('',$,#8);
#11=PRODUCT_DEFINITION_CONTEXT('part definition',#5,'design');
#12=PRODUCT_DEFINITION('',$,#10,#11);
#18=(NAMED_UNIT(*)PLANE_ANGLE_UNIT()SI_UNIT($,.RADIAN.));
#19=DIMENSIONAL_EXPONENTS(0.0,0.0,0.0,0.0,0.0,0.0,0.0);
#20=PLANE_ANGLE_MEASURE_WITH_UNIT(PLANE_ANGLE_MEASURE(0.017453292500000),#18);
#24=(CONVERSION_BASED_UNIT('DEGREE',#20)NAMED_UNIT(#19)PLANE_ANGLE_UNIT());
#28=(NAMED_UNIT(*)SI_UNIT($,.STERADIAN.)SOLID_ANGLE_UNIT());
#32=(LENGTH_UNIT()NAMED_UNIT(*)SI_UNIT(.MILLI.,.METRE.));
#34=UNCERTAINTY_MEASURE_WITH_UNIT(LENGTH_MEASURE(0.010000000000000),#32,'DISTANCE_ACCURACY_VALUE','');
#36=(GEOMETRIC_REPRESENTATION_CONTEXT(3)GLOBAL_UNCERTAINTY_ASSIGNED_CONTEXT((#34))GLOBAL_UNIT_ASSIGNED_CONTEXT((#24,#28,#32))REPRESENTATION_CONTEXT('None','None'));
#37=AXIS2_PLACEMENT_3D('',#38,#39,#40);
#38=CARTESIAN_POINT('',(0.0,0.0,0.0));
#39=DIRECTION('',(0.0,0.0,1.0));
#40=DIRECTION('',(1.0,0.0,0.0));
#41=SHAPE_REPRESENTATION('',(#37),#36);
#42=PRODUCT_DEFINITION_SHAPE('','',#12);
#43=SHAPE_DEFINITION_REPRESENTATION(#42,#41);
#49=(NAMED_UNIT(*)PLANE_ANGLE_UNIT()SI_UNIT($,.RADIAN.));
#50=DIMENSIONAL_EXPONENTS(0.0,0.0,0.0,0.0,0.0,0.0,0.0);
#51=PLANE_ANGLE_MEASURE_WITH_UNIT(PLANE_ANGLE_MEASURE(0.017453292500000),#49);
#55=(CONVERSION_BASED_UNIT('DEGREE',#51)NAMED_UNIT(#50)PLANE_ANGLE_UNIT());
#59=(NAMED_UNIT(*)SI_UNIT($,.STERADIAN.)SOLID_ANGLE_UNIT());
#63=(LENGTH_UNIT()NAMED_UNIT(*)SI_UNIT(.MILLI.,.METRE.));
#65=UNCERTAINTY_MEASURE_WITH_UNIT(LENGTH_MEASURE(0.000001000000000),#63,'DISTANCE_ACCURACY_VALUE','');
#67=(GEOMETRIC_REPRESENTATION_CONTEXT(3)GLOBAL_UNCERTAINTY_ASSIGNED_CONTEXT((#65))GLOBAL_UNIT_ASSIGNED_CONTEXT((#55,#59,#63))REPRESENTATION_CONTEXT('','3D'));
#68=CARTESIAN_POINT('',(31.750000000000004,3.888254E-015,2.005359E-015));
#69=CARTESIAN_POINT('',(31.750000000000004,3.888254E-015,2.005359E-015));
#70=CARTESIAN_POINT('',(31.750000000000007,3.888254E-015,2.005359E-015));
#71=CARTESIAN_POINT('',(31.750000000000004,3.888254E-015,2.005359E-015));
#72=CARTESIAN_POINT('',(31.750000000000004,3.888254E-015,2.005359E-015));
#73=CARTESIAN_POINT('',(31.750000000000004,4.749788892927429,4.899388543098372));
#74=CARTESIAN_POINT('',(31.750000000000004,4.778284064388571,4.870893371637243));
#75=CARTESIAN_POINT('',(31.750000000000007,4.828150614445534,4.821026821580257));
#76=CARTESIAN_POINT('',(31.750000000000004,4.878017164502532,4.771160271523273));
#77=CARTESIAN_POINT('',(31.750000000000004,4.899388543098376,4.749788892927424));
#78=CARTESIAN_POINT('',(29.585360861871713,14.247655989069672,14.696401059591535));
#79=CARTESIAN_POINT('',(29.559166655185720,14.331813617268395,14.609830044260036));
#80=CARTESIAN_POINT('',(29.540268924900495,14.479801139192116,14.458369545381533));
#81=CARTESIAN_POINT('',(29.565549155123595,14.631400913876416,14.310691670208048));
#82=CARTESIAN_POINT('',(29.585360861871713,14.696401059591537,14.247655989069672));
#83=CARTESIAN_POINT('',(20.471604635756403,25.670359346154569,26.478874601151581));
#84=CARTESIAN_POINT('',(20.361311014382451,25.761663836666475,26.293014296987156));
#85=CARTESIAN_POINT('',(20.271194838482639,26.013443430704484,25.967201834503189));
#86=CARTESIAN_POINT('',(20.388864234297138,26.339250238233284,25.738586310286394));
#87=CARTESIAN_POINT('',(20.471604635756403,26.478874601151581,25.670359346154569));
#88=CARTESIAN_POINT('',(7.307091498443588,32.014885942768927,33.023228807108097));
#89=CARTESIAN_POINT('',(7.218816125091817,32.011906019233500,32.720103265520471));
#90=CARTESIAN_POINT('',(7.139966027237358,32.265638396673666,32.196386145932870));
#91=CARTESIAN_POINT('',(7.241383952267336,32.796240327706400,32.013043679548751));
#92=CARTESIAN_POINT('',(7.307091498443591,33.023228807108104,32.014885942768927));
#93=CARTESIAN_POINT('',(-7.306212934468896,32.010200073410530,33.018395351313238));
#94=CARTESIAN_POINT('',(-7.218682512342633,32.007763669589991,32.715522529724780));
#95=CARTESIAN_POINT('',(-7.140094201963301,32.260813198520346,32.191644125987118));
#96=CARTESIAN_POINT('',(-7.240933256203968,32.791377261289888,32.008522900813560));
#97=CARTESIAN_POINT('',(-7.306212934468899,33.018395351313231,32.010200073410530));
#98=CARTESIAN_POINT('',(-20.474071130218412,25.674323751678191,26.482963869841267));
#99=CARTESIAN_POINT('',(-20.363424899418426,25.766653237139586,26.297753655288464));
#100=CARTESIAN_POINT('',(-20.273567510008679,26.019047904387477,25.972883559819991));
#101=CARTESIAN_POINT('',(-20.391202092548045,26.343788830236221,25.743278263801525));
#102=CARTESIAN_POINT('',(-20.474071130218412,26.482963869841289,25.674323751678184));
#103=CARTESIAN_POINT('',(-29.583226172580673,14.245385584930396,14.694059146660507));
#104=CARTESIAN_POINT('',(-29.556496559410597,14.329361164939534,14.607543916663587));
#105=CARTESIAN_POINT('',(-29.537044394557736,14.477847070522857,14.456371786824647));
#106=CARTESIAN_POINT('',(-29.563033892244945,14.629189888394563,14.308383948343826));
#107=CARTESIAN_POINT('',(-29.583226172580673,14.694059146660489,14.245385584930407));
#108=CARTESIAN_POINT('',(-31.750000000000004,4.749788892927428,4.899388543098372));
#109=CARTESIAN_POINT('',(-31.750000000000004,4.778284064388569,4.870893371637243));
#110=CARTESIAN_POINT('',(-31.750000000000007,4.828150614445534,4.821026821580256));
#111=CARTESIAN_POINT('',(-31.750000000000004,4.878017164502532,4.771160271523272));
#112=CARTESIAN_POINT('',(-31.750000000000004,4.899388543098376,4.749788892927422));
#113=CARTESIAN_POINT('',(-31.750000000000004,1.944127E-015,2.005359E-015));
#114=CARTESIAN_POINT('',(-31.750000000000004,2.320268E-015,1.629218E-015));
#115=CARTESIAN_POINT('',(-31.750000000000007,2.978516E-015,9.709700E-016));
#116=CARTESIAN_POINT('',(-31.750000000000004,3.636764E-015,3.127223E-016));
#117=CARTESIAN_POINT('',(-31.750000000000004,3.918870E-015,3.061617E-017));
#118=B_SPLINE_SURFACE_WITH_KNOTS('',3,3,((#68,#73,#78,#83,#88,#93,#98,#103,#108,#113),(#69,#74,#79,#84,#89,#94,#99,#104,#109,#114),(#70,#75,#80,#85,#90,#95,#100,#105,#110,#115),(#71,#76,#81,#86,#91,#96,#101,#106,#111,#116),(#72,#77,#82,#87,#92,#97,#102,#107,#112,#117)),.UNSPECIFIED.,.F.,.F.,.U.,(4,1,4),(4,1,1,1,1,1,1,4),(0.0,0.571428571428571,1.0),(-1.570796326794897,-1.121997376282069,-0.673198425769241,-0.224399475256414,0.224399475256414,0.673198425769241,1.121997376282069,1.570796326794897),.UNSPECIFIED.);
#119=CARTESIAN_POINT('',(31.750000000000004,0.0,0.0));
#120=VERTEX_POINT('',#119);
#121=CARTESIAN_POINT('',(-31.750000000000004,0.0,0.0));
#122=VERTEX_POINT('',#121);
#123=CARTESIAN_POINT('',(0.0,0.0,0.0));
#124=DIRECTION('',(0.0,-0.696060234322251,0.717983391308778));
#125=DIRECTION('',(0.0,0.717983391308778,0.696060234322251));
#126=AXIS2_PLACEMENT_3D('',#123,#124,#125);
#127=ELLIPSE('',#126,45.613868505093933,31.750000000000000);
#128=EDGE_CURVE('',#120,#122,#127,.T.);
#129=ORIENTED_EDGE('',*,*,#128,.T.);
#130=CARTESIAN_POINT('',(0.0,0.0,0.0));
#131=DIRECTION('',(0.0,0.717983391308778,-0.696060234322251));
#132=DIRECTION('',(0.0,0.696060234322251,0.717983391308778));
#133=AXIS2_PLACEMENT_3D('',#130,#131,#132);
#134=ELLIPSE('',#133,45.613868505093933,31.750000000000000);
#135=EDGE_CURVE('',#122,#120,#134,.T.);
#136=ORIENTED_EDGE('',*,*,#135,.T.);
#137=EDGE_LOOP('',(#129,#136));
#138=FACE_OUTER_BOUND('',#137,.T.);
#139=ADVANCED_FACE('',(#138),#118,.T.);
#140=CARTESIAN_POINT('',(-31.750000000000004,1.944127E-015,-2.005359E-015));
#141=CARTESIAN_POINT('',(-31.750000000000004,1.944127E-015,-2.005359E-015));
#142=CARTESIAN_POINT('',(-31.750000000000007,1.944127E-015,-2.005359E-015));
#143=CARTESIAN_POINT('',(-31.750000000000004,1.944127E-015,-2.005359E-015));
#144=CARTESIAN_POINT('',(-31.750000000000004,1.944127E-015,-2.005359E-015));
#145=CARTESIAN_POINT('',(-31.750000000000004,4.749788892927428,-4.899388543098372));
#146=CARTESIAN_POINT('',(-31.750000000000004,4.778284064388569,-4.870893371637243));
#147=CARTESIAN_POINT('',(-31.750000000000007,4.828150614445533,-4.821026821580257));
#148=CARTESIAN_POINT('',(-31.750000000000004,4.878017164502531,-4.771160271523273));
#149=CARTESIAN_POINT('',(-31.750000000000004,4.899388543098374,-4.749788892927424));
#150=CARTESIAN_POINT('',(-29.585360861871720,14.247655989069676,-14.696401059591535));
#151=CARTESIAN_POINT('',(-29.559166655185720,14.331813617268379,-14.609830044260033));
#152=CARTESIAN_POINT('',(-29.540268924900488,14.479801139192121,-14.458369545381542));
#153=CARTESIAN_POINT('',(-29.565549155123602,14.631400913876398,-14.310691670208044));
#154=CARTESIAN_POINT('',(-29.585360861871720,14.696401059591537,-14.247655989069672));
#155=CARTESIAN_POINT('',(-20.471604635756403,25.670359346154559,-26.478874601151581));
#156=CARTESIAN_POINT('',(-20.361311014382458,25.761663836666486,-26.293014296987156));
#157=CARTESIAN_POINT('',(-20.271194838482657,26.013443430704484,-25.967201834503189));
#158=CARTESIAN_POINT('',(-20.388864234297131,26.339250238233291,-25.738586310286401));
#159=CARTESIAN_POINT('',(-20.471604635756403,26.478874601151574,-25.670359346154569));
#160=CARTESIAN_POINT('',(-7.307091498443588,32.014885942768942,-33.023228807108097));
#161=CARTESIAN_POINT('',(-7.218816125091808,32.011906019233493,-32.720103265520471));
#162=CARTESIAN_POINT('',(-7.139966027237355,32.265638396673666,-32.196386145932863));
#163=CARTESIAN_POINT('',(-7.241383952267332,32.796240327706371,-32.013043679548751));
#164=CARTESIAN_POINT('',(-7.307091498443582,33.023228807108111,-32.014885942768927));
#165=CARTESIAN_POINT('',(7.306212934468896,32.010200073410516,-33.018395351313238));
#166=CARTESIAN_POINT('',(7.218682512342625,32.007763669589998,-32.715522529724780));
#167=CARTESIAN_POINT('',(7.140094201963309,32.260813198520346,-32.191644125987139));
#168=CARTESIAN_POINT('',(7.240933256203964,32.791377261289902,-32.008522900813567));
#169=CARTESIAN_POINT('',(7.306212934468892,33.018395351313231,-32.010200073410530));
#170=CARTESIAN_POINT('',(20.474071130218412,25.674323751678205,-26.482963869841267));
#171=CARTESIAN_POINT('',(20.363424899418419,25.766653237139568,-26.297753655288464));
#172=CARTESIAN_POINT('',(20.273567510008657,26.019047904387477,-25.972883559819991));
#173=CARTESIAN_POINT('',(20.391202092548049,26.343788830236221,-25.743278263801521));
#174=CARTESIAN_POINT('',(20.474071130218423,26.482963869841289,-25.674323751678184));
#175=CARTESIAN_POINT('',(29.583226172580662,14.245385584930395,-14.694059146660507));
#176=CARTESIAN_POINT('',(29.556496559410590,14.329361164939554,-14.607543916663587));
#177=CARTESIAN_POINT('',(29.537044394557753,14.477847070522857,-14.456371786824640));
#178=CARTESIAN_POINT('',(29.563033892244938,14.629189888394567,-14.308383948343831));
#179=CARTESIAN_POINT('',(29.583226172580662,14.694059146660495,-14.245385584930403));
#180=CARTESIAN_POINT('',(31.750000000000004,4.749788892927429,-4.899388543098372));
#181=CARTESIAN_POINT('',(31.750000000000004,4.778284064388571,-4.870893371637243));
#182=CARTESIAN_POINT('',(31.750000000000007,4.828150614445534,-4.821026821580257));
#183=CARTESIAN_POINT('',(31.750000000000004,4.878017164502532,-4.771160271523273));
#184=CARTESIAN_POINT('',(31.750000000000004,4.899388543098376,-4.749788892927424));
#185=CARTESIAN_POINT('',(31.750000000000004,3.888254E-015,-2.005359E-015));
#186=CARTESIAN_POINT('',(31.750000000000004,3.888254E-015,-2.005359E-015));
#187=CARTESIAN_POINT('',(31.750000000000007,3.888254E-015,-2.005359E-015));
#188=CARTESIAN_POINT('',(31.750000000000004,3.888254E-015,-2.005359E-015));
#189=CARTESIAN_POINT('',(31.750000000000004,3.888254E-015,-2.005359E-015));
#190=B_SPLINE_SURFACE_WITH_KNOTS('',3,3,((#140,#145,#150,#155,#160,#165,#170,#175,#180,#185),(#141,#146,#151,#156,#161,#166,#171,#176,#181,#186),(#142,#147,#152,#157,#162,#167,#172,#177,#182,#187),(#143,#148,#153,#158,#163,#168,#173,#178,#183,#188),(#144,#149,#154,#159,#164,#169,#174,#179,#184,#189)),.UNSPECIFIED.,.F.,.F.,.U.,(4,1,4),(4,1,1,1,1,1,1,4),(0.0,0.571428571428571,1.0),(-1.570796326794897,-1.121997376282069,-0.673198425769241,-0.224399475256414,0.224399475256414,0.673198425769241,1.121997376282069,1.570796326794897),.UNSPECIFIED.);
#191=CARTESIAN_POINT('',(0.0,0.0,0.0));
#192=DIRECTION('',(0.0,-0.696060234322251,-0.717983391308778));
#193=DIRECTION('',(0.0,0.717983391308778,-0.696060234322251));
#194=AXIS2_PLACEMENT_3D('',#191,#192,#193);
#195=ELLIPSE('',#194,45.613868505093933,31.750000000000000);
#196=EDGE_CURVE('',#122,#120,#195,.T.);
#197=ORIENTED_EDGE('',*,*,#196,.T.);
#198=CARTESIAN_POINT('',(0.0,0.0,0.0));
#199=DIRECTION('',(0.0,0.717983391308778,0.696060234322251));
#200=DIRECTION('',(0.0,0.696060234322251,-0.717983391308778));
#201=AXIS2_PLACEMENT_3D('',#198,#199,#200);
#202=ELLIPSE('',#201,45.613868505093933,31.750000000000000);
#203=EDGE_CURVE('',#120,#122,#202,.T.);
#204=ORIENTED_EDGE('',*,*,#203,.T.);
#205=EDGE_LOOP('',(#197,#204));
#206=FACE_OUTER_BOUND('',#205,.T.);
#207=ADVANCED_FACE('',(#206),#190,.T.);
#208=CARTESIAN_POINT('',(0.0,114.0,0.0));
#209=DIRECTION('',(0.0,-1.0,0.0));
#210=DIRECTION('',(1.0,0.0,0.0));
#211=AXIS2_PLACEMENT_3D('',#208,#209,#210);
#212=CYLINDRICAL_SURFACE('',#211,30.100000000000001);
#213=CARTESIAN_POINT('',(30.100000000000001,0.0,0.0));
#214=VERTEX_POINT('',#213);
#215=CARTESIAN_POINT('',(-30.100000000000001,0.0,3.686187E-015));
#216=VERTEX_POINT('',#215);
#217=CARTESIAN_POINT('',(0.0,0.0,0.0));
#218=DIRECTION('',(0.0,0.707106781186548,0.707106781186548));
#219=DIRECTION('',(0.0,-0.707106781186548,0.707106781186548));
#220=AXIS2_PLACEMENT_3D('',#217,#218,#219);
#221=ELLIPSE('',#220,42.567828227430162,30.100000000000009);
#222=EDGE_CURVE('',#214,#216,#221,.T.);
#223=ORIENTED_EDGE('',*,*,#222,.F.);
#224=CARTESIAN_POINT('',(0.0,0.0,0.0));
#225=DIRECTION('',(0.0,0.707106781186548,-0.707106781186548));
#226=DIRECTION('',(0.0,0.707106781186548,0.707106781186548));
#227=AXIS2_PLACEMENT_3D('',#224,#225,#226);
#228=ELLIPSE('',#227,42.567828227430162,30.100000000000009);
#229=EDGE_CURVE('',#216,#214,#228,.T.);
#230=ORIENTED_EDGE('',*,*,#229,.F.);
#231=EDGE_LOOP('',(#223,#230));
#232=FACE_OUTER_BOUND('',#231,.T.);
#233=CARTESIAN_POINT('',(-30.100000000000001,114.0,3.686187E-015));
#234=VERTEX_POINT('',#233);
#235=CARTESIAN_POINT('',(0.0,114.0,0.0));
#236=DIRECTION('',(0.0,-1.0,0.0));
#237=DIRECTION('',(1.0,0.0,0.0));
#238=AXIS2_PLACEMENT_3D('',#235,#236,#237);
#239=CIRCLE('',#238,30.100000000000001);
#240=EDGE_CURVE('',#234,#234,#239,.T.);
#241=ORIENTED_EDGE('',*,*,#240,.F.);
#242=EDGE_LOOP('',(#241));
#243=FACE_BOUND('',#242,.T.);
#244=ADVANCED_FACE('',(#232,#243),#212,.F.);
#245=CARTESIAN_POINT('',(0.0,114.0,0.0));
#246=DIRECTION('',(0.0,-1.0,0.0));
#247=DIRECTION('',(1.0,0.0,0.0));
#248=AXIS2_PLACEMENT_3D('',#245,#246,#247);
#249=CYLINDRICAL_SURFACE('',#248,31.750000000000004);
#250=ORIENTED_EDGE('',*,*,#196,.F.);
#251=ORIENTED_EDGE('',*,*,#128,.F.);
#252=EDGE_LOOP('',(#250,#251));
#253=FACE_OUTER_BOUND('',#252,.T.);
#254=CARTESIAN_POINT('',(-31.750000000000004,114.0,3.888254E-015));
#255=VERTEX_POINT('',#254);
#256=CARTESIAN_POINT('',(0.0,114.0,0.0));
#257=DIRECTION('',(0.0,-1.0,0.0));
#258=DIRECTION('',(1.0,0.0,0.0));
#259=AXIS2_PLACEMENT_3D('',#256,#257,#258);
#260=CIRCLE('',#259,31.750000000000004);
#261=EDGE_CURVE('',#255,#255,#260,.T.);
#262=ORIENTED_EDGE('',*,*,#261,.T.);
#263=EDGE_LOOP('',(#262));
#264=FACE_BOUND('',#263,.T.);
#265=ADVANCED_FACE('',(#253,#264),#249,.T.);
#266=CARTESIAN_POINT('',(0.0,114.0,0.0));
#267=DIRECTION('',(0.0,-1.0,0.0));
#268=DIRECTION('',(0.0,0.0,-1.0));
#269=AXIS2_PLACEMENT_3D('',#266,#267,#268);
#270=PLANE('',#269);
#271=ORIENTED_EDGE('',*,*,#261,.F.);
#272=EDGE_LOOP('',(#271));
#273=FACE_OUTER_BOUND('',#272,.T.);
#274=ORIENTED_EDGE('',*,*,#240,.T.);
#275=EDGE_LOOP('',(#274));
#276=FACE_BOUND('',#275,.T.);
#277=ADVANCED_FACE('',(#273,#276),#270,.F.);
#278=CARTESIAN_POINT('',(0.0,0.0,0.0));
#279=DIRECTION('',(0.0,0.0,1.0));
#280=DIRECTION('',(-1.0,0.0,0.0));
#281=AXIS2_PLACEMENT_3D('',#278,#279,#280);
#282=CYLINDRICAL_SURFACE('',#281,31.750000000000004);
#283=CARTESIAN_POINT('',(31.750000000000004,3.888254E-015,114.0));
#284=VERTEX_POINT('',#283);
#285=CARTESIAN_POINT('',(0.0,0.0,114.0));
#286=DIRECTION('',(0.0,0.0,-1.0));
#287=DIRECTION('',(-1.0,0.0,0.0));
#288=AXIS2_PLACEMENT_3D('',#285,#286,#287);
#289=CIRCLE('',#288,31.750000000000004);
#290=EDGE_CURVE('',#284,#284,#289,.T.);
#291=ORIENTED_EDGE('',*,*,#290,.T.);
#292=EDGE_LOOP('',(#291));
#293=FACE_OUTER_BOUND('',#292,.T.);
#294=ORIENTED_EDGE('',*,*,#135,.F.);
#295=ORIENTED_EDGE('',*,*,#203,.F.);
#296=EDGE_LOOP('',(#294,#295));
#297=FACE_BOUND('',#296,.T.);
#298=CARTESIAN_POINT('',(31.750000000000004,3.888254E-015,-114.0));
#299=VERTEX_POINT('',#298);
#300=CARTESIAN_POINT('',(0.0,0.0,-114.0));
#301=DIRECTION('',(0.0,0.0,1.0));
#302=DIRECTION('',(-1.0,0.0,0.0));
#303=AXIS2_PLACEMENT_3D('',#300,#301,#302);
#304=CIRCLE('',#303,31.750000000000004);
#305=EDGE_CURVE('',#299,#299,#304,.T.);
#306=ORIENTED_EDGE('',*,*,#305,.T.);
#307=EDGE_LOOP('',(#306));
#308=FACE_BOUND('',#307,.T.);
#309=ADVANCED_FACE('',(#293,#297,#308),#282,.T.);
#310=CARTESIAN_POINT('',(0.0,0.0,0.0));
#311=DIRECTION('',(0.0,0.0,1.0));
#312=DIRECTION('',(-1.0,0.0,0.0));
#313=AXIS2_PLACEMENT_3D('',#310,#311,#312);
#314=CYLINDRICAL_SURFACE('',#313,30.100000000000001);
#315=CARTESIAN_POINT('',(30.100000000000001,3.686187E-015,-114.0));
#316=VERTEX_POINT('',#315);
#317=CARTESIAN_POINT('',(0.0,0.0,-114.0));
#318=DIRECTION('',(0.0,0.0,1.0));
#319=DIRECTION('',(-1.0,0.0,0.0));
#320=AXIS2_PLACEMENT_3D('',#317,#318,#319);
#321=CIRCLE('',#320,30.100000000000001);
#322=EDGE_CURVE('',#316,#316,#321,.T.);
#323=ORIENTED_EDGE('',*,*,#322,.F.);
#324=EDGE_LOOP('',(#323));
#325=FACE_OUTER_BOUND('',#324,.T.);
#326=ORIENTED_EDGE('',*,*,#222,.T.);
#327=ORIENTED_EDGE('',*,*,#229,.T.);
#328=EDGE_LOOP('',(#326,#327));
#329=FACE_BOUND('',#328,.T.);
#330=CARTESIAN_POINT('',(30.100000000000001,3.686187E-015,114.0));
#331=VERTEX_POINT('',#330);
#332=CARTESIAN_POINT('',(0.0,0.0,114.0));
#333=DIRECTION('',(0.0,0.0,-1.0));
#334=DIRECTION('',(-1.0,0.0,0.0));
#335=AXIS2_PLACEMENT_3D('',#332,#333,#334);
#336=CIRCLE('',#335,30.100000000000001);
#337=EDGE_CURVE('',#331,#331,#336,.T.);
#338=ORIENTED_EDGE('',*,*,#337,.F.);
#339=EDGE_LOOP('',(#338));
#340=FACE_BOUND('',#339,.T.);
#341=ADVANCED_FACE('',(#325,#329,#340),#314,.F.);
#342=CARTESIAN_POINT('',(0.0,0.0,-114.0));
#343=DIRECTION('',(0.0,0.0,-1.0));
#344=DIRECTION('',(-1.0,0.0,0.0));
#345=AXIS2_PLACEMENT_3D('',#342,#343,#344);
#346=PLANE('',#345);
#347=ORIENTED_EDGE('',*,*,#305,.F.);
#348=EDGE_LOOP('',(#347));
#349=FACE_OUTER_BOUND('',#348,.T.);
#350=ORIENTED_EDGE('',*,*,#322,.T.);
#351=EDGE_LOOP('',(#350));
#352=FACE_BOUND('',#351,.T.);
#353=ADVANCED_FACE('',(#349,#352),#346,.T.);
#354=CARTESIAN_POINT('',(0.0,0.0,114.0));
#355=DIRECTION('',(0.0,0.0,-1.0));
#356=DIRECTION('',(-1.0,0.0,0.0));
#357=AXIS2_PLACEMENT_3D('',#354,#355,#356);
#358=PLANE('',#357);
#359=ORIENTED_EDGE('',*,*,#290,.F.);
#360=EDGE_LOOP('',(#359));
#361=FACE_OUTER_BOUND('',#360,.T.);
#362=ORIENTED_EDGE('',*,*,#337,.T.);
#363=EDGE_LOOP('',(#362));
#364=FACE_BOUND('',#363,.T.);
#365=ADVANCED_FACE('',(#361,#364),#358,.F.);
#366=CLOSED_SHELL('',(#139,#207,#244,#265,#277,#309,#341,#353,#365));
#367=MANIFOLD_SOLID_BREP('Solid1',#366);
#368=COLOUR_RGB('Metal-Steel',0.639216005802155,0.639216005802155,0.686275005340576);
#369=FILL_AREA_STYLE_COLOUR('Metal-Steel',#368);
#370=FILL_AREA_STYLE('Metal-Steel',(#369));
#371=SURFACE_STYLE_FILL_AREA(#370);
#372=SURFACE_SIDE_STYLE('Metal-Steel',(#371));
#373=SURFACE_STYLE_USAGE(.BOTH.,#372);
#374=PRESENTATION_STYLE_ASSIGNMENT((#373));
#375=STYLED_ITEM('',(#374),#367);
#376=MECHANICAL_DESIGN_GEOMETRIC_PRESENTATION_REPRESENTATION('',(#375),#36);
#377=ADVANCED_BREP_SHAPE_REPRESENTATION('ABSR',(#367),#36);
#378=SHAPE_REPRESENTATION_RELATIONSHIP('SRR','None',#377,#41);
ENDSEC;
END-ISO-10303-21;
