ISO-10303-21;
HEADER;
/* Generated by software containing ST-Developer
 * from STEP Tools, Inc. (www.steptools.com) 
 */

FILE_DESCRIPTION(
/* description */ (''),
/* implementation_level */ '2;1');

FILE_NAME(
/* name */ 'Z:\\Geberit\\Export\\NewStep\\31936.stp',
/* time_stamp */ '2014-04-01T20:18:07+02:00',
/* author */ ('bruh'),
/* organization */ (''),
/* preprocessor_version */ 'ST-DEVELOPER v15.2',
/* originating_system */ 'Autodesk Inventor 2014',
/* authorisation */ '');

FILE_SCHEMA (('AUTOMOTIVE_DESIGN { 1 0 10303 214 3 1 1 }'));
ENDSEC;

DATA;
#10=SHAPE_REPRESENTATION_RELATIONSHIP('SRR','None',#397,#11);
#11=ADVANCED_BREP_SHAPE_REPRESENTATION($,(#222),#388);
#12=STYLED_ITEM($,(#405),#222);
#13=CYLINDRICAL_SURFACE($,#232,9.50000000000001);
#14=CYLINDRICAL_SURFACE($,#239,13.2205);
#15=CYLINDRICAL_SURFACE($,#244,11.);
#16=FACE_BOUND($,#57,.T.);
#17=FACE_BOUND($,#60,.T.);
#18=FACE_BOUND($,#62,.T.);
#19=FACE_BOUND($,#64,.T.);
#20=FACE_BOUND($,#66,.T.);
#21=FACE_BOUND($,#68,.T.);
#22=FACE_BOUND($,#69,.T.);
#23=FACE_BOUND($,#70,.T.);
#24=FACE_BOUND($,#72,.T.);
#25=FACE_BOUND($,#73,.T.);
#26=FACE_BOUND($,#74,.T.);
#27=CIRCLE($,#230,11.1);
#28=CIRCLE($,#233,9.50000000000001);
#29=CIRCLE($,#234,9.5);
#30=CIRCLE($,#236,11.7205);
#31=CIRCLE($,#238,13.2205);
#32=CIRCLE($,#240,13.2205);
#33=CIRCLE($,#243,11.);
#34=CIRCLE($,#245,11.);
#35=CONICAL_SURFACE($,#229,14.2102540378444,75.);
#36=CONICAL_SURFACE($,#237,12.4705,44.9999999999999);
#37=CONICAL_SURFACE($,#241,15.2705040378444,75.);
#38=FACE_OUTER_BOUND($,#51,.T.);
#39=FACE_OUTER_BOUND($,#52,.T.);
#40=FACE_OUTER_BOUND($,#53,.T.);
#41=FACE_OUTER_BOUND($,#54,.T.);
#42=FACE_OUTER_BOUND($,#55,.T.);
#43=FACE_OUTER_BOUND($,#56,.T.);
#44=FACE_OUTER_BOUND($,#58,.T.);
#45=FACE_OUTER_BOUND($,#59,.T.);
#46=FACE_OUTER_BOUND($,#61,.T.);
#47=FACE_OUTER_BOUND($,#63,.T.);
#48=FACE_OUTER_BOUND($,#65,.T.);
#49=FACE_OUTER_BOUND($,#67,.T.);
#50=FACE_OUTER_BOUND($,#71,.T.);
#51=EDGE_LOOP($,(#145,#146,#147,#148));
#52=EDGE_LOOP($,(#149,#150,#151,#152));
#53=EDGE_LOOP($,(#153,#154,#155,#156));
#54=EDGE_LOOP($,(#157,#158,#159,#160));
#55=EDGE_LOOP($,(#161,#162,#163,#164));
#56=EDGE_LOOP($,(#165));
#57=EDGE_LOOP($,(#166,#167,#168,#169,#170,#171));
#58=EDGE_LOOP($,(#172,#173,#174,#175));
#59=EDGE_LOOP($,(#176));
#60=EDGE_LOOP($,(#177));
#61=EDGE_LOOP($,(#178));
#62=EDGE_LOOP($,(#179));
#63=EDGE_LOOP($,(#180));
#64=EDGE_LOOP($,(#181));
#65=EDGE_LOOP($,(#182));
#66=EDGE_LOOP($,(#183));
#67=EDGE_LOOP($,(#184,#185,#186,#187,#188,#189));
#68=EDGE_LOOP($,(#190));
#69=EDGE_LOOP($,(#191));
#70=EDGE_LOOP($,(#192));
#71=EDGE_LOOP($,(#193));
#72=EDGE_LOOP($,(#194));
#73=EDGE_LOOP($,(#195));
#74=EDGE_LOOP($,(#196));
#75=LINE($,#309,#81);
#76=LINE($,#314,#82);
#77=LINE($,#321,#83);
#78=LINE($,#331,#84);
#79=LINE($,#341,#85);
#80=LINE($,#351,#86);
#81=VECTOR($,#251,5.73462603176607);
#82=VECTOR($,#252,5.73462603176606);
#83=VECTOR($,#255,5.73462603176607);
#84=VECTOR($,#258,5.73462603176606);
#85=VECTOR($,#261,5.73462603176606);
#86=VECTOR($,#264,5.73462603176606);
#87=(
BOUNDED_CURVE()
B_SPLINE_CURVE(2,(#305,#306,#307),.UNSPECIFIED.,.F.,.F.)
B_SPLINE_CURVE_WITH_KNOTS((3,3),(0.,1.7365092364939),.UNSPECIFIED.)
CURVE()
GEOMETRIC_REPRESENTATION_ITEM()
RATIONAL_B_SPLINE_CURVE((1.,1.15470053837925,1.))
REPRESENTATION_ITEM($)
);
#88=(
BOUNDED_CURVE()
B_SPLINE_CURVE(2,(#311,#312,#313),.UNSPECIFIED.,.F.,.F.)
B_SPLINE_CURVE_WITH_KNOTS((3,3),(0.,1.73650923649389),.UNSPECIFIED.)
CURVE()
GEOMETRIC_REPRESENTATION_ITEM()
RATIONAL_B_SPLINE_CURVE((1.,1.15470053837925,1.))
REPRESENTATION_ITEM($)
);
#89=(
BOUNDED_CURVE()
B_SPLINE_CURVE(2,(#317,#318,#319),.UNSPECIFIED.,.F.,.F.)
B_SPLINE_CURVE_WITH_KNOTS((3,3),(0.,1.7365092364939),.UNSPECIFIED.)
CURVE()
GEOMETRIC_REPRESENTATION_ITEM()
RATIONAL_B_SPLINE_CURVE((1.,1.15470053837925,1.))
REPRESENTATION_ITEM($)
);
#90=(
BOUNDED_CURVE()
B_SPLINE_CURVE(2,(#322,#323,#324),.UNSPECIFIED.,.F.,.F.)
B_SPLINE_CURVE_WITH_KNOTS((3,3),(0.,1.73650923649389),.UNSPECIFIED.)
CURVE()
GEOMETRIC_REPRESENTATION_ITEM()
RATIONAL_B_SPLINE_CURVE((1.,1.15470053837925,1.))
REPRESENTATION_ITEM($)
);
#91=(
BOUNDED_CURVE()
B_SPLINE_CURVE(2,(#327,#328,#329),.UNSPECIFIED.,.F.,.F.)
B_SPLINE_CURVE_WITH_KNOTS((3,3),(0.,1.7365092364939),.UNSPECIFIED.)
CURVE()
GEOMETRIC_REPRESENTATION_ITEM()
RATIONAL_B_SPLINE_CURVE((1.,1.15470053837925,1.))
REPRESENTATION_ITEM($)
);
#92=(
BOUNDED_CURVE()
B_SPLINE_CURVE(2,(#332,#333,#334),.UNSPECIFIED.,.F.,.F.)
B_SPLINE_CURVE_WITH_KNOTS((3,3),(0.,1.73650923649388),.UNSPECIFIED.)
CURVE()
GEOMETRIC_REPRESENTATION_ITEM()
RATIONAL_B_SPLINE_CURVE((1.,1.15470053837926,1.))
REPRESENTATION_ITEM($)
);
#93=(
BOUNDED_CURVE()
B_SPLINE_CURVE(2,(#337,#338,#339),.UNSPECIFIED.,.F.,.F.)
B_SPLINE_CURVE_WITH_KNOTS((3,3),(0.,1.7365092364939),.UNSPECIFIED.)
CURVE()
GEOMETRIC_REPRESENTATION_ITEM()
RATIONAL_B_SPLINE_CURVE((1.,1.15470053837925,1.))
REPRESENTATION_ITEM($)
);
#94=(
BOUNDED_CURVE()
B_SPLINE_CURVE(2,(#342,#343,#344),.UNSPECIFIED.,.F.,.F.)
B_SPLINE_CURVE_WITH_KNOTS((3,3),(0.,1.73650923649388),.UNSPECIFIED.)
CURVE()
GEOMETRIC_REPRESENTATION_ITEM()
RATIONAL_B_SPLINE_CURVE((1.,1.15470053837926,1.))
REPRESENTATION_ITEM($)
);
#95=(
BOUNDED_CURVE()
B_SPLINE_CURVE(2,(#347,#348,#349),.UNSPECIFIED.,.F.,.F.)
B_SPLINE_CURVE_WITH_KNOTS((3,3),(0.,1.7365092364939),.UNSPECIFIED.)
CURVE()
GEOMETRIC_REPRESENTATION_ITEM()
RATIONAL_B_SPLINE_CURVE((1.,1.15470053837925,1.))
REPRESENTATION_ITEM($)
);
#96=(
BOUNDED_CURVE()
B_SPLINE_CURVE(2,(#352,#353,#354),.UNSPECIFIED.,.F.,.F.)
B_SPLINE_CURVE_WITH_KNOTS((3,3),(0.,1.7365092364939),.UNSPECIFIED.)
CURVE()
GEOMETRIC_REPRESENTATION_ITEM()
RATIONAL_B_SPLINE_CURVE((1.,1.15470053837924,1.))
REPRESENTATION_ITEM($)
);
#97=(
BOUNDED_CURVE()
B_SPLINE_CURVE(2,(#358,#359,#360),.UNSPECIFIED.,.F.,.F.)
B_SPLINE_CURVE_WITH_KNOTS((3,3),(0.,1.7365092364939),.UNSPECIFIED.)
CURVE()
GEOMETRIC_REPRESENTATION_ITEM()
RATIONAL_B_SPLINE_CURVE((1.,1.15470053837924,1.))
REPRESENTATION_ITEM($)
);
#98=(
BOUNDED_CURVE()
B_SPLINE_CURVE(2,(#362,#363,#364),.UNSPECIFIED.,.F.,.F.)
B_SPLINE_CURVE_WITH_KNOTS((3,3),(0.,1.7365092364939),.UNSPECIFIED.)
CURVE()
GEOMETRIC_REPRESENTATION_ITEM()
RATIONAL_B_SPLINE_CURVE((1.,1.15470053837925,1.))
REPRESENTATION_ITEM($)
);
#99=VERTEX_POINT($,#303);
#100=VERTEX_POINT($,#304);
#101=VERTEX_POINT($,#308);
#102=VERTEX_POINT($,#310);
#103=VERTEX_POINT($,#316);
#104=VERTEX_POINT($,#320);
#105=VERTEX_POINT($,#326);
#106=VERTEX_POINT($,#330);
#107=VERTEX_POINT($,#336);
#108=VERTEX_POINT($,#340);
#109=VERTEX_POINT($,#346);
#110=VERTEX_POINT($,#350);
#111=VERTEX_POINT($,#356);
#112=VERTEX_POINT($,#366);
#113=VERTEX_POINT($,#368);
#114=VERTEX_POINT($,#371);
#115=VERTEX_POINT($,#374);
#116=VERTEX_POINT($,#377);
#117=VERTEX_POINT($,#381);
#118=VERTEX_POINT($,#384);
#119=EDGE_CURVE($,#99,#100,#87,.T.);
#120=EDGE_CURVE($,#101,#99,#75,.T.);
#121=EDGE_CURVE($,#102,#101,#88,.T.);
#122=EDGE_CURVE($,#100,#102,#76,.T.);
#123=EDGE_CURVE($,#103,#99,#89,.T.);
#124=EDGE_CURVE($,#104,#103,#77,.T.);
#125=EDGE_CURVE($,#101,#104,#90,.T.);
#126=EDGE_CURVE($,#105,#103,#91,.T.);
#127=EDGE_CURVE($,#106,#105,#78,.T.);
#128=EDGE_CURVE($,#104,#106,#92,.T.);
#129=EDGE_CURVE($,#107,#105,#93,.T.);
#130=EDGE_CURVE($,#108,#107,#79,.T.);
#131=EDGE_CURVE($,#106,#108,#94,.T.);
#132=EDGE_CURVE($,#109,#107,#95,.T.);
#133=EDGE_CURVE($,#109,#110,#80,.T.);
#134=EDGE_CURVE($,#108,#110,#96,.T.);
#135=EDGE_CURVE($,#111,#111,#27,.T.);
#136=EDGE_CURVE($,#110,#102,#97,.T.);
#137=EDGE_CURVE($,#100,#109,#98,.T.);
#138=EDGE_CURVE($,#112,#112,#28,.T.);
#139=EDGE_CURVE($,#113,#113,#29,.T.);
#140=EDGE_CURVE($,#114,#114,#30,.T.);
#141=EDGE_CURVE($,#115,#115,#31,.T.);
#142=EDGE_CURVE($,#116,#116,#32,.T.);
#143=EDGE_CURVE($,#117,#117,#33,.T.);
#144=EDGE_CURVE($,#118,#118,#34,.T.);
#145=ORIENTED_EDGE($,*,*,#119,.F.);
#146=ORIENTED_EDGE($,*,*,#120,.F.);
#147=ORIENTED_EDGE($,*,*,#121,.F.);
#148=ORIENTED_EDGE($,*,*,#122,.F.);
#149=ORIENTED_EDGE($,*,*,#123,.F.);
#150=ORIENTED_EDGE($,*,*,#124,.F.);
#151=ORIENTED_EDGE($,*,*,#125,.F.);
#152=ORIENTED_EDGE($,*,*,#120,.T.);
#153=ORIENTED_EDGE($,*,*,#126,.F.);
#154=ORIENTED_EDGE($,*,*,#127,.F.);
#155=ORIENTED_EDGE($,*,*,#128,.F.);
#156=ORIENTED_EDGE($,*,*,#124,.T.);
#157=ORIENTED_EDGE($,*,*,#129,.F.);
#158=ORIENTED_EDGE($,*,*,#130,.F.);
#159=ORIENTED_EDGE($,*,*,#131,.F.);
#160=ORIENTED_EDGE($,*,*,#127,.T.);
#161=ORIENTED_EDGE($,*,*,#132,.F.);
#162=ORIENTED_EDGE($,*,*,#133,.T.);
#163=ORIENTED_EDGE($,*,*,#134,.F.);
#164=ORIENTED_EDGE($,*,*,#130,.T.);
#165=ORIENTED_EDGE($,*,*,#135,.F.);
#166=ORIENTED_EDGE($,*,*,#121,.T.);
#167=ORIENTED_EDGE($,*,*,#125,.T.);
#168=ORIENTED_EDGE($,*,*,#128,.T.);
#169=ORIENTED_EDGE($,*,*,#131,.T.);
#170=ORIENTED_EDGE($,*,*,#134,.T.);
#171=ORIENTED_EDGE($,*,*,#136,.T.);
#172=ORIENTED_EDGE($,*,*,#136,.F.);
#173=ORIENTED_EDGE($,*,*,#133,.F.);
#174=ORIENTED_EDGE($,*,*,#137,.F.);
#175=ORIENTED_EDGE($,*,*,#122,.T.);
#176=ORIENTED_EDGE($,*,*,#138,.F.);
#177=ORIENTED_EDGE($,*,*,#139,.T.);
#178=ORIENTED_EDGE($,*,*,#140,.F.);
#179=ORIENTED_EDGE($,*,*,#138,.T.);
#180=ORIENTED_EDGE($,*,*,#141,.F.);
#181=ORIENTED_EDGE($,*,*,#140,.T.);
#182=ORIENTED_EDGE($,*,*,#142,.F.);
#183=ORIENTED_EDGE($,*,*,#141,.T.);
#184=ORIENTED_EDGE($,*,*,#119,.T.);
#185=ORIENTED_EDGE($,*,*,#137,.T.);
#186=ORIENTED_EDGE($,*,*,#132,.T.);
#187=ORIENTED_EDGE($,*,*,#129,.T.);
#188=ORIENTED_EDGE($,*,*,#126,.T.);
#189=ORIENTED_EDGE($,*,*,#123,.T.);
#190=ORIENTED_EDGE($,*,*,#142,.T.);
#191=ORIENTED_EDGE($,*,*,#143,.F.);
#192=ORIENTED_EDGE($,*,*,#135,.T.);
#193=ORIENTED_EDGE($,*,*,#144,.F.);
#194=ORIENTED_EDGE($,*,*,#143,.T.);
#195=ORIENTED_EDGE($,*,*,#139,.F.);
#196=ORIENTED_EDGE($,*,*,#144,.T.);
#197=PLANE($,#224);
#198=PLANE($,#225);
#199=PLANE($,#226);
#200=PLANE($,#227);
#201=PLANE($,#228);
#202=PLANE($,#231);
#203=PLANE($,#235);
#204=PLANE($,#242);
#205=PLANE($,#246);
#206=ADVANCED_FACE($,(#38),#197,.F.);
#207=ADVANCED_FACE($,(#39),#198,.F.);
#208=ADVANCED_FACE($,(#40),#199,.F.);
#209=ADVANCED_FACE($,(#41),#200,.F.);
#210=ADVANCED_FACE($,(#42),#201,.F.);
#211=ADVANCED_FACE($,(#43,#16),#35,.T.);
#212=ADVANCED_FACE($,(#44),#202,.F.);
#213=ADVANCED_FACE($,(#45,#17),#13,.F.);
#214=ADVANCED_FACE($,(#46,#18),#203,.T.);
#215=ADVANCED_FACE($,(#47,#19),#36,.T.);
#216=ADVANCED_FACE($,(#48,#20),#14,.T.);
#217=ADVANCED_FACE($,(#49,#21),#37,.T.);
#218=ADVANCED_FACE($,(#22,#23),#204,.T.);
#219=ADVANCED_FACE($,(#50,#24),#15,.T.);
#220=ADVANCED_FACE($,(#25,#26),#205,.T.);
#221=CLOSED_SHELL($,(#206,#207,#208,#209,#210,#211,#212,#213,#214,#215,
#216,#217,#218,#219,#220));
#222=MANIFOLD_SOLID_BREP('Volumenk\X\F6rper1',#221);
#223=AXIS2_PLACEMENT_3D('placement',#301,#247,#248);
#224=AXIS2_PLACEMENT_3D($,#302,#249,#250);
#225=AXIS2_PLACEMENT_3D($,#315,#253,#254);
#226=AXIS2_PLACEMENT_3D($,#325,#256,#257);
#227=AXIS2_PLACEMENT_3D($,#335,#259,#260);
#228=AXIS2_PLACEMENT_3D($,#345,#262,#263);
#229=AXIS2_PLACEMENT_3D($,#355,#265,#266);
#230=AXIS2_PLACEMENT_3D($,#357,#267,#268);
#231=AXIS2_PLACEMENT_3D($,#361,#269,#270);
#232=AXIS2_PLACEMENT_3D($,#365,#271,#272);
#233=AXIS2_PLACEMENT_3D($,#367,#273,#274);
#234=AXIS2_PLACEMENT_3D($,#369,#275,#276);
#235=AXIS2_PLACEMENT_3D($,#370,#277,#278);
#236=AXIS2_PLACEMENT_3D($,#372,#279,#280);
#237=AXIS2_PLACEMENT_3D($,#373,#281,#282);
#238=AXIS2_PLACEMENT_3D($,#375,#283,#284);
#239=AXIS2_PLACEMENT_3D($,#376,#285,#286);
#240=AXIS2_PLACEMENT_3D($,#378,#287,#288);
#241=AXIS2_PLACEMENT_3D($,#379,#289,#290);
#242=AXIS2_PLACEMENT_3D($,#380,#291,#292);
#243=AXIS2_PLACEMENT_3D($,#382,#293,#294);
#244=AXIS2_PLACEMENT_3D($,#383,#295,#296);
#245=AXIS2_PLACEMENT_3D($,#385,#297,#298);
#246=AXIS2_PLACEMENT_3D($,#386,#299,#300);
#247=DIRECTION('axis',(0.,0.,1.));
#248=DIRECTION('refdir',(1.,0.,0.));
#249=DIRECTION('center_axis',(0.,-0.499999999999999,0.866025403784439));
#250=DIRECTION('ref_axis',(0.,-0.866025403784439,-0.5));
#251=DIRECTION($,(1.,6.08453061007792E-017,1.0538716156863E-016));
#252=DIRECTION($,(-1.,6.54346274643529E-016,-4.4804510552109E-016));
#253=DIRECTION('center_axis',(0.,0.5,0.866025403784438));
#254=DIRECTION('ref_axis',(0.,-0.866025403784438,0.5));
#255=DIRECTION($,(1.,6.08453061007792E-017,1.0538716156863E-016));
#256=DIRECTION('center_axis',(0.,1.,0.));
#257=DIRECTION('ref_axis',(0.,0.,1.));
#258=DIRECTION($,(1.,6.08453061007792E-017,1.0538716156863E-016));
#259=DIRECTION('center_axis',(0.,0.5,-0.866025403784439));
#260=DIRECTION('ref_axis',(0.,0.866025403784439,0.5));
#261=DIRECTION($,(1.,6.08453061007792E-017,1.0538716156863E-016));
#262=DIRECTION('center_axis',(0.,-0.5,-0.866025403784439));
#263=DIRECTION('ref_axis',(0.,0.866025403784439,-0.5));
#264=DIRECTION($,(-1.,6.54346274643529E-016,4.4804510552109E-016));
#265=DIRECTION('center_axis',(1.,1.21690612201558E-016,0.));
#266=DIRECTION('ref_axis',(-1.0538716156863E-016,0.866025403784439,0.5));
#267=DIRECTION('center_axis',(-1.,-6.08453061007791E-017,1.0538716156863E-016));
#268=DIRECTION('ref_axis',(-1.0538716156863E-016,0.866025403784438,-0.500000000000001));
#269=DIRECTION('center_axis',(0.,-1.,-1.28197512425571E-016));
#270=DIRECTION('ref_axis',(0.,1.77635683940025E-016,-1.));
#271=DIRECTION('center_axis',(-1.,-1.21690612201558E-016,0.));
#272=DIRECTION('ref_axis',(-1.0538716156863E-016,0.866025403784439,0.5));
#273=DIRECTION('center_axis',(-1.,-6.08453061007791E-017,1.0538716156863E-016));
#274=DIRECTION('ref_axis',(-1.0538716156863E-016,0.866025403784438,-0.500000000000001));
#275=DIRECTION('center_axis',(-1.,-6.08453061007791E-017,1.0538716156863E-016));
#276=DIRECTION('ref_axis',(-1.0538716156863E-016,0.866025403784438,-0.500000000000001));
#277=DIRECTION('center_axis',(1.,1.21690612201558E-016,0.));
#278=DIRECTION('ref_axis',(0.,0.5,-0.866025403784439));
#279=DIRECTION('center_axis',(-1.,-6.08453061007791E-017,1.0538716156863E-016));
#280=DIRECTION('ref_axis',(-1.0538716156863E-016,0.866025403784438,-0.500000000000001));
#281=DIRECTION('center_axis',(-1.,-1.21690612201558E-016,0.));
#282=DIRECTION('ref_axis',(-1.0538716156863E-016,0.866025403784439,0.5));
#283=DIRECTION('center_axis',(-1.,-6.08453061007791E-017,1.0538716156863E-016));
#284=DIRECTION('ref_axis',(-1.0538716156863E-016,0.866025403784438,-0.500000000000001));
#285=DIRECTION('center_axis',(-1.,-1.21690612201558E-016,0.));
#286=DIRECTION('ref_axis',(-1.0538716156863E-016,0.866025403784439,0.5));
#287=DIRECTION('center_axis',(-1.,-6.08453061007791E-017,1.0538716156863E-016));
#288=DIRECTION('ref_axis',(-1.0538716156863E-016,0.866025403784438,-0.500000000000001));
#289=DIRECTION('center_axis',(-1.,-1.21690612201558E-016,0.));
#290=DIRECTION('ref_axis',(-1.0538716156863E-016,0.866025403784439,0.5));
#291=DIRECTION('center_axis',(-1.,-1.21690612201558E-016,0.));
#292=DIRECTION('ref_axis',(0.,-0.5,0.866025403784439));
#293=DIRECTION('center_axis',(-1.,-6.08453061007791E-017,1.0538716156863E-016));
#294=DIRECTION('ref_axis',(-1.0538716156863E-016,0.866025403784438,-0.500000000000001));
#295=DIRECTION('center_axis',(-1.,-1.21690612201558E-016,0.));
#296=DIRECTION('ref_axis',(-1.0538716156863E-016,0.866025403784439,0.5));
#297=DIRECTION('center_axis',(-1.,-1.21690612201558E-016,0.));
#298=DIRECTION('ref_axis',(-1.0538716156863E-016,0.866025403784439,0.5));
#299=DIRECTION('center_axis',(-1.,-1.21690612201558E-016,0.));
#300=DIRECTION('ref_axis',(6.08453061007792E-017,-0.5,0.866025403784439));
#301=CARTESIAN_POINT('',(0.,0.,0.));
#302=CARTESIAN_POINT('Origin',(35.,-1.11022302462516E-014,-17.3205080756888));
#303=CARTESIAN_POINT('',(42.4014061471581,-9.99200722162641E-015,-17.3205080756888));
#304=CARTESIAN_POINT('',(42.4014061471581,15.,-8.66025403784437));
#305=CARTESIAN_POINT('Ctrl Pts',(42.4014061471581,-2.09167638174399E-014,
-17.3205080756888));
#306=CARTESIAN_POINT('Ctrl Pts',(43.5616601850025,7.49999999999999,-12.9903810567666));
#307=CARTESIAN_POINT('Ctrl Pts',(42.4014061471581,15.,-8.66025403784438));
#308=CARTESIAN_POINT('',(36.6667801153921,-1.77635683940025E-014,-17.3205080756888));
#309=CARTESIAN_POINT($,(39.5340931312751,8.88178419700125E-015,-17.3205080756887));
#310=CARTESIAN_POINT('',(36.6667801153921,15.,-8.66025403784437));
#311=CARTESIAN_POINT('Ctrl Pts',(36.6667801153921,15.,-8.66025403784439));
#312=CARTESIAN_POINT('Ctrl Pts',(35.5065260775477,7.49999999999998,-12.9903810567666));
#313=CARTESIAN_POINT('Ctrl Pts',(36.6667801153921,-1.03255563201586E-014,
-17.3205080756888));
#314=CARTESIAN_POINT($,(42.4014061471581,15.,-8.66025403784437));
#315=CARTESIAN_POINT('Origin',(35.,-15.,-8.66025403784437));
#316=CARTESIAN_POINT('',(42.4014061471581,-15.,-8.66025403784437));
#317=CARTESIAN_POINT('Ctrl Pts',(42.4014061471581,-15.,-8.66025403784436));
#318=CARTESIAN_POINT('Ctrl Pts',(43.5616601850025,-7.49999999999999,-12.9903810567666));
#319=CARTESIAN_POINT('Ctrl Pts',(42.4014061471581,1.05648867164578E-014,
-17.3205080756888));
#320=CARTESIAN_POINT('',(36.6667801153921,-15.,-8.66025403784437));
#321=CARTESIAN_POINT($,(39.5340931312751,-15.,-8.66025403784438));
#322=CARTESIAN_POINT('Ctrl Pts',(36.6667801153921,-4.00964379580042E-014,
-17.3205080756887));
#323=CARTESIAN_POINT('Ctrl Pts',(35.5065260775477,-7.50000000000002,-12.9903810567665));
#324=CARTESIAN_POINT('Ctrl Pts',(36.6667801153921,-14.9999999999999,-8.66025403784439));
#325=CARTESIAN_POINT('Origin',(35.,-15.,8.66025403784437));
#326=CARTESIAN_POINT('',(42.4014061471581,-15.,8.66025403784435));
#327=CARTESIAN_POINT('Ctrl Pts',(42.4014061471581,-15.,8.66025403784439));
#328=CARTESIAN_POINT('Ctrl Pts',(43.5616601850025,-15.,0.));
#329=CARTESIAN_POINT('Ctrl Pts',(42.4014061471581,-15.,-8.66025403784439));
#330=CARTESIAN_POINT('',(36.6667801153921,-15.,8.66025403784436));
#331=CARTESIAN_POINT($,(39.5340931312751,-15.,8.66025403784436));
#332=CARTESIAN_POINT('Ctrl Pts',(36.6667801153921,-15.,-8.66025403784432));
#333=CARTESIAN_POINT('Ctrl Pts',(35.5065260775477,-15.,0.));
#334=CARTESIAN_POINT('Ctrl Pts',(36.6667801153921,-15.,8.66025403784432));
#335=CARTESIAN_POINT('Origin',(35.,0.,17.3205080756888));
#336=CARTESIAN_POINT('',(42.4014061471581,-2.22044604925031E-014,17.3205080756887));
#337=CARTESIAN_POINT('Ctrl Pts',(42.4014061471581,1.30834187591696E-014,
17.3205080756888));
#338=CARTESIAN_POINT('Ctrl Pts',(43.5616601850025,-7.49999999999998,12.9903810567666));
#339=CARTESIAN_POINT('Ctrl Pts',(42.4014061471581,-15.,8.66025403784438));
#340=CARTESIAN_POINT('',(36.6667801153921,-1.4432899320127E-014,17.3205080756887));
#341=CARTESIAN_POINT($,(39.5340931312751,-4.44089209850063E-015,17.3205080756888));
#342=CARTESIAN_POINT('Ctrl Pts',(36.6667801153921,-14.9999999999999,8.66025403784441));
#343=CARTESIAN_POINT('Ctrl Pts',(35.5065260775477,-7.49999999999999,12.9903810567666));
#344=CARTESIAN_POINT('Ctrl Pts',(36.6667801153921,-3.87432160653749E-014,
17.3205080756887));
#345=CARTESIAN_POINT('Origin',(35.,15.,8.66025403784438));
#346=CARTESIAN_POINT('',(42.4014061471581,15.,8.66025403784437));
#347=CARTESIAN_POINT('Ctrl Pts',(42.4014061471581,15.,8.66025403784437));
#348=CARTESIAN_POINT('Ctrl Pts',(43.5616601850025,7.49999999999999,12.9903810567666));
#349=CARTESIAN_POINT('Ctrl Pts',(42.4014061471581,-1.08426356465926E-014,
17.3205080756888));
#350=CARTESIAN_POINT('',(36.6667801153921,15.,8.66025403784437));
#351=CARTESIAN_POINT($,(42.4014061471581,15.,8.66025403784437));
#352=CARTESIAN_POINT('Ctrl Pts',(36.6667801153921,-6.26589064227058E-015,
17.3205080756888));
#353=CARTESIAN_POINT('Ctrl Pts',(35.5065260775477,7.49999999999999,12.9903810567666));
#354=CARTESIAN_POINT('Ctrl Pts',(36.6667801153921,15.,8.66025403784437));
#355=CARTESIAN_POINT('Origin',(35.833390057696,4.36058717337827E-015,2.46519032881566E-031));
#356=CARTESIAN_POINT('',(35.,9.6128819820073,-5.55000000000001));
#357=CARTESIAN_POINT('Origin',(35.,2.12958571352727E-015,-3.68855065490206E-015));
#358=CARTESIAN_POINT('Ctrl Pts',(36.6667801153921,15.,8.66025403784439));
#359=CARTESIAN_POINT('Ctrl Pts',(35.5065260775477,15.,2.22044604925031E-015));
#360=CARTESIAN_POINT('Ctrl Pts',(36.6667801153921,15.,-8.66025403784439));
#361=CARTESIAN_POINT('Origin',(35.,15.,-8.66025403784437));
#362=CARTESIAN_POINT('Ctrl Pts',(42.4014061471581,15.,-8.66025403784439));
#363=CARTESIAN_POINT('Ctrl Pts',(43.5616601850025,15.,2.22044604925031E-015));
#364=CARTESIAN_POINT('Ctrl Pts',(42.4014061471581,15.,8.6602540378444));
#365=CARTESIAN_POINT('Origin',(29.5,3.58987305994598E-015,2.46519032881566E-031));
#366=CARTESIAN_POINT('',(59.,8.22724133595218,-4.75));
#367=CARTESIAN_POINT('Origin',(59.,3.58987305994597E-015,-6.21784253254919E-015));
#368=CARTESIAN_POINT('',(-6.6214907814163E-016,8.22724133595217,-4.75));
#369=CARTESIAN_POINT('Origin',(1.15606081591481E-015,7.03408742154528E-032,
-1.21833967989976E-031));
#370=CARTESIAN_POINT('Origin',(59.,9.18874604050386,5.305125));
#371=CARTESIAN_POINT('',(59.,10.1502507450555,-5.86025));
#372=CARTESIAN_POINT('Origin',(59.,3.58987305994597E-015,-6.21784253254919E-015));
#373=CARTESIAN_POINT('Origin',(58.25,7.08847816074078E-015,4.93038065763132E-031));
#374=CARTESIAN_POINT('',(57.5,11.4492888507322,-6.61025));
#375=CARTESIAN_POINT('Origin',(57.5,3.4986051007948E-015,-6.05976179019624E-015));
#376=CARTESIAN_POINT('Origin',(50.5,6.1453759161787E-015,4.93038065763132E-031));
#377=CARTESIAN_POINT('',(43.5,11.4492888507322,-6.61025));
#378=CARTESIAN_POINT('Origin',(43.5,2.64677081538389E-015,-4.58434152823542E-015));
#379=CARTESIAN_POINT('Origin',(42.9507030735791,5.2266973515112E-015,0.));
#380=CARTESIAN_POINT('Origin',(35.,9.56958071181808,5.52500000000001));
#381=CARTESIAN_POINT('',(35.,9.52627944162886,-5.50000000000002));
#382=CARTESIAN_POINT('Origin',(35.,2.12958571352727E-015,-3.68855065490206E-015));
#383=CARTESIAN_POINT('Origin',(17.5,2.12958571352727E-015,1.23259516440783E-031));
#384=CARTESIAN_POINT('',(-8.20229820494577E-016,9.52627944162884,-5.50000000000001));
#385=CARTESIAN_POINT('Origin',(1.6229716393691E-015,1.97500412380592E-031,
1.3684555315672E-047));
#386=CARTESIAN_POINT('Origin',(3.09297821563491E-016,8.8767603887905,5.125));
#387=UNCERTAINTY_MEASURE_WITH_UNIT(LENGTH_MEASURE(0.01),#389,
'DISTANCE_ACCURACY_VALUE',
'Maximum model space distance between geometric entities at asserted c
onnectivities');
#388=(
GEOMETRIC_REPRESENTATION_CONTEXT(3)
GLOBAL_UNCERTAINTY_ASSIGNED_CONTEXT((#387))
GLOBAL_UNIT_ASSIGNED_CONTEXT((#389,#392,#390))
REPRESENTATION_CONTEXT('','3D')
);
#389=(
LENGTH_UNIT()
NAMED_UNIT(*)
SI_UNIT(.MILLI.,.METRE.)
);
#390=(
NAMED_UNIT(*)
SI_UNIT($,.STERADIAN.)
SOLID_ANGLE_UNIT()
);
#391=DIMENSIONAL_EXPONENTS(0.,0.,0.,0.,0.,0.,0.);
#392=(
CONVERSION_BASED_UNIT('degree',#394)
NAMED_UNIT(#391)
PLANE_ANGLE_UNIT()
);
#393=(
NAMED_UNIT(*)
PLANE_ANGLE_UNIT()
SI_UNIT($,.RADIAN.)
);
#394=PLANE_ANGLE_MEASURE_WITH_UNIT(PLANE_ANGLE_MEASURE(0.01745329252),#393);
#395=SHAPE_DEFINITION_REPRESENTATION(#396,#397);
#396=PRODUCT_DEFINITION_SHAPE('',$,#399);
#397=SHAPE_REPRESENTATION('',(#223),#388);
#398=PRODUCT_DEFINITION_CONTEXT('3D Mechanical Parts',#402,'design');
#399=PRODUCT_DEFINITION('31936','31936',#400,#398);
#400=PRODUCT_DEFINITION_FORMATION('',$,#404);
#401=APPLICATION_PROTOCOL_DEFINITION('international standard',
'automotive_design',2009,#402);
#402=APPLICATION_CONTEXT(
'Core Data for Automotive Mechanical Design Process');
#403=PRODUCT_CONTEXT('3D Mechanical Parts',#402,'mechanical');
#404=PRODUCT('31936','31936',$,(#403));
#405=PRESENTATION_STYLE_ASSIGNMENT((#406));
#406=SURFACE_STYLE_USAGE(.BOTH.,#407);
#407=SURFACE_SIDE_STYLE($,(#408));
#408=SURFACE_STYLE_FILL_AREA(#409);
#409=FILL_AREA_STYLE($,(#410));
#410=FILL_AREA_STYLE_COLOUR($,#411);
#411=COLOUR_RGB('',1.,1.,1.);
ENDSEC;
END-ISO-10303-21;
