ISO-10303-21;
HEADER;
/****************************************************************
 * Generated by software with PDE/Lib inside                    *
 * PDElib Version v51a, created Thu 12/14/2006                  *
 * International Technegroup Inc. (www.iti-oh.com)              *
 ****************************************************************/
FILE_DESCRIPTION((''),'2;1');
FILE_NAME('T:\\Arbeitspl\S\dtze\\Aushilfe\\KPeters\\3D\\Steps 08_10\\18901\\189010340X00.stp','2010-08-11T14:56:02',('thilbrands'),(''),'Autodesk Inventor 2008','Autodesk Inventor 2008','');
FILE_SCHEMA(('AUTOMOTIVE_DESIGN { 1 0 10303 214 1 1 1 1 }'));
ENDSEC;
DATA;
#5=APPLICATION_CONTEXT('automotive design');
#6=APPLICATION_PROTOCOL_DEFINITION('International Standard','automotive_design',2001,#5);
#7=PRODUCT_CONTEXT('',#5,'mechanical');
#8=PRODUCT('189010140100','189010140100',$,(#7));
#9=PRODUCT_RELATED_PRODUCT_CATEGORY('part',$,(#8));
#10=PRODUCT_DEFINITION_FORMATION('',$,#8);
#11=PRODUCT_DEFINITION_CONTEXT('part definition',#5,'design');
#12=PRODUCT_DEFINITION('',$,#10,#11);
#18=(NAMED_UNIT(*)PLANE_ANGLE_UNIT()SI_UNIT($,.RADIAN.));
#19=DIMENSIONAL_EXPONENTS(0.0,0.0,0.0,0.0,0.0,0.0,0.0);
#20=PLANE_ANGLE_MEASURE_WITH_UNIT(PLANE_ANGLE_MEASURE(0.017453292500000),#18);
#24=(CONVERSION_BASED_UNIT('DEGREE',#20)NAMED_UNIT(#19)PLANE_ANGLE_UNIT());
#28=(NAMED_UNIT(*)SI_UNIT($,.STERADIAN.)SOLID_ANGLE_UNIT());
#32=(LENGTH_UNIT()NAMED_UNIT(*)SI_UNIT(.MILLI.,.METRE.));
#34=UNCERTAINTY_MEASURE_WITH_UNIT(LENGTH_MEASURE(0.010000000000000),#32,'DISTANCE_ACCURACY_VALUE','');
#36=(GEOMETRIC_REPRESENTATION_CONTEXT(3)GLOBAL_UNCERTAINTY_ASSIGNED_CONTEXT((#34))GLOBAL_UNIT_ASSIGNED_CONTEXT((#24,#28,#32))REPRESENTATION_CONTEXT('None','None'));
#37=AXIS2_PLACEMENT_3D('',#38,#39,#40);
#38=CARTESIAN_POINT('',(0.0,0.0,0.0));
#39=DIRECTION('',(0.0,0.0,1.0));
#40=DIRECTION('',(1.0,0.0,0.0));
#41=SHAPE_REPRESENTATION('',(#37),#36);
#42=PRODUCT_DEFINITION_SHAPE('','',#12);
#43=SHAPE_DEFINITION_REPRESENTATION(#42,#41);
#49=(NAMED_UNIT(*)PLANE_ANGLE_UNIT()SI_UNIT($,.RADIAN.));
#50=DIMENSIONAL_EXPONENTS(0.0,0.0,0.0,0.0,0.0,0.0,0.0);
#51=PLANE_ANGLE_MEASURE_WITH_UNIT(PLANE_ANGLE_MEASURE(0.017453292500000),#49);
#55=(CONVERSION_BASED_UNIT('DEGREE',#51)NAMED_UNIT(#50)PLANE_ANGLE_UNIT());
#59=(NAMED_UNIT(*)SI_UNIT($,.STERADIAN.)SOLID_ANGLE_UNIT());
#63=(LENGTH_UNIT()NAMED_UNIT(*)SI_UNIT(.MILLI.,.METRE.));
#65=UNCERTAINTY_MEASURE_WITH_UNIT(LENGTH_MEASURE(0.000001000000000),#63,'DISTANCE_ACCURACY_VALUE','');
#67=(GEOMETRIC_REPRESENTATION_CONTEXT(3)GLOBAL_UNCERTAINTY_ASSIGNED_CONTEXT((#65))GLOBAL_UNIT_ASSIGNED_CONTEXT((#55,#59,#63))REPRESENTATION_CONTEXT('','3D'));
#68=CARTESIAN_POINT('',(0.0,0.0,0.0));
#69=DIRECTION('',(1.0,0.0,0.0));
#70=DIRECTION('',(0.0,1.0,0.0));
#71=AXIS2_PLACEMENT_3D('',#68,#69,#70);
#72=CYLINDRICAL_SURFACE('',#71,8.0);
#73=CARTESIAN_POINT('',(-1.000000000000002,8.0,0.0));
#74=VERTEX_POINT('',#73);
#75=CARTESIAN_POINT('',(-1.000000000000002,0.0,0.0));
#76=DIRECTION('',(1.0,0.0,0.0));
#77=DIRECTION('',(0.0,1.0,0.0));
#78=AXIS2_PLACEMENT_3D('',#75,#76,#77);
#79=CIRCLE('',#78,8.0);
#80=EDGE_CURVE('',#74,#74,#79,.T.);
#81=ORIENTED_EDGE('',*,*,#80,.F.);
#82=EDGE_LOOP('',(#81));
#83=FACE_OUTER_BOUND('',#82,.T.);
#84=CARTESIAN_POINT('',(1.000000000000002,8.0,0.0));
#85=VERTEX_POINT('',#84);
#86=CARTESIAN_POINT('',(1.000000000000002,0.0,0.0));
#87=DIRECTION('',(1.0,0.0,0.0));
#88=DIRECTION('',(0.0,1.0,0.0));
#89=AXIS2_PLACEMENT_3D('',#86,#87,#88);
#90=CIRCLE('',#89,8.0);
#91=EDGE_CURVE('',#85,#85,#90,.T.);
#92=ORIENTED_EDGE('',*,*,#91,.T.);
#93=EDGE_LOOP('',(#92));
#94=FACE_BOUND('',#93,.T.);
#95=ADVANCED_FACE('',(#83,#94),#72,.F.);
#96=CARTESIAN_POINT('',(-1.000000000000003,8.449999999999999,0.0));
#97=DIRECTION('',(-1.0,0.0,0.0));
#98=DIRECTION('',(0.0,0.0,1.0));
#99=AXIS2_PLACEMENT_3D('',#96,#97,#98);
#100=PLANE('',#99);
#101=CARTESIAN_POINT('',(-1.000000000000003,8.899999999999997,0.0));
#102=VERTEX_POINT('',#101);
#103=CARTESIAN_POINT('',(-1.000000000000003,0.0,0.0));
#104=DIRECTION('',(1.0,0.0,0.0));
#105=DIRECTION('',(0.0,1.0,0.0));
#106=AXIS2_PLACEMENT_3D('',#103,#104,#105);
#107=CIRCLE('',#106,8.899999999999997);
#108=EDGE_CURVE('',#102,#102,#107,.T.);
#109=ORIENTED_EDGE('',*,*,#108,.F.);
#110=EDGE_LOOP('',(#109));
#111=FACE_OUTER_BOUND('',#110,.T.);
#112=ORIENTED_EDGE('',*,*,#80,.T.);
#113=EDGE_LOOP('',(#112));
#114=FACE_BOUND('',#113,.T.);
#115=ADVANCED_FACE('',(#111,#114),#100,.T.);
#116=CARTESIAN_POINT('',(-1.400000000000007,-1.138884E-015,9.299999999999997));
#117=CARTESIAN_POINT('',(-1.000000000000002,-1.138884E-015,9.300000000000001));
#118=CARTESIAN_POINT('',(-1.000000000000002,-1.089900E-015,8.899999999999995));
#119=CARTESIAN_POINT('',(-1.000000000000002,-1.040915E-015,8.499999999999989));
#120=CARTESIAN_POINT('',(-1.400000000000007,-1.040915E-015,8.499999999999993));
#121=CARTESIAN_POINT('',(-1.400000000000007,-9.299999999999997,9.299999999999994));
#122=CARTESIAN_POINT('',(-1.000000000000002,-9.300000000000001,9.299999999999997));
#123=CARTESIAN_POINT('',(-1.000000000000002,-8.899999999999995,8.899999999999992));
#124=CARTESIAN_POINT('',(-1.000000000000002,-8.499999999999989,8.499999999999986));
#125=CARTESIAN_POINT('',(-1.400000000000007,-8.499999999999993,8.499999999999989));
#126=CARTESIAN_POINT('',(-1.400000000000007,-9.299999999999997,-1.138884E-015));
#127=CARTESIAN_POINT('',(-1.000000000000002,-9.300000000000001,-1.138884E-015));
#128=CARTESIAN_POINT('',(-1.000000000000002,-8.899999999999995,-1.089900E-015));
#129=CARTESIAN_POINT('',(-1.000000000000002,-8.499999999999989,-1.040915E-015));
#130=CARTESIAN_POINT('',(-1.400000000000007,-8.499999999999993,-1.040915E-015));
#131=CARTESIAN_POINT('',(-1.400000000000007,-9.299999999999994,-9.299999999999997));
#132=CARTESIAN_POINT('',(-1.000000000000002,-9.299999999999997,-9.300000000000001));
#133=CARTESIAN_POINT('',(-1.000000000000002,-8.899999999999992,-8.899999999999995));
#134=CARTESIAN_POINT('',(-1.000000000000002,-8.499999999999986,-8.499999999999989));
#135=CARTESIAN_POINT('',(-1.400000000000007,-8.499999999999989,-8.499999999999993));
#136=CARTESIAN_POINT('',(-1.400000000000007,1.138884E-015,-9.299999999999997));
#137=CARTESIAN_POINT('',(-1.000000000000002,1.138884E-015,-9.300000000000001));
#138=CARTESIAN_POINT('',(-1.000000000000002,1.089900E-015,-8.899999999999995));
#139=CARTESIAN_POINT('',(-1.000000000000002,1.040915E-015,-8.499999999999989));
#140=CARTESIAN_POINT('',(-1.400000000000007,1.040915E-015,-8.499999999999993));
#141=CARTESIAN_POINT('',(-1.400000000000007,9.299999999999997,-9.299999999999994));
#142=CARTESIAN_POINT('',(-1.000000000000002,9.300000000000001,-9.299999999999997));
#143=CARTESIAN_POINT('',(-1.000000000000002,8.899999999999995,-8.899999999999992));
#144=CARTESIAN_POINT('',(-1.000000000000002,8.499999999999989,-8.499999999999986));
#145=CARTESIAN_POINT('',(-1.400000000000007,8.499999999999993,-8.499999999999989));
#146=CARTESIAN_POINT('',(-1.400000000000007,9.299999999999997,1.138884E-015));
#147=CARTESIAN_POINT('',(-1.000000000000002,9.300000000000001,1.138884E-015));
#148=CARTESIAN_POINT('',(-1.000000000000002,8.899999999999995,1.089900E-015));
#149=CARTESIAN_POINT('',(-1.000000000000002,8.499999999999989,1.040915E-015));
#150=CARTESIAN_POINT('',(-1.400000000000007,8.499999999999993,1.040915E-015));
#151=CARTESIAN_POINT('',(-1.400000000000007,9.299999999999994,9.299999999999997));
#152=CARTESIAN_POINT('',(-1.000000000000002,9.299999999999997,9.300000000000001));
#153=CARTESIAN_POINT('',(-1.000000000000002,8.899999999999992,8.899999999999995));
#154=CARTESIAN_POINT('',(-1.000000000000002,8.499999999999986,8.499999999999989));
#155=CARTESIAN_POINT('',(-1.400000000000007,8.499999999999989,8.499999999999993));
#156=CARTESIAN_POINT('',(-1.400000000000007,-1.138884E-015,9.299999999999997));
#157=CARTESIAN_POINT('',(-1.000000000000002,-1.138884E-015,9.300000000000001));
#158=CARTESIAN_POINT('',(-1.000000000000002,-1.089900E-015,8.899999999999995));
#159=CARTESIAN_POINT('',(-1.000000000000002,-1.040915E-015,8.499999999999989));
#160=CARTESIAN_POINT('',(-1.400000000000007,-1.040915E-015,8.499999999999993));
#168=(BOUNDED_SURFACE()B_SPLINE_SURFACE(2,2,((#116,#121,#126,#131,#136,#141,#146,#151,#156),(#117,#122,#127,#132,#137,#142,#147,#152,#157),(#118,#123,#128,#133,#138,#143,#148,#153,#158),(#119,#124,#129,#134,#139,#144,#149,#154,#159),(#120,#125,#130,#135,#140,#145,#150,#155,#160)),.UNSPECIFIED.,.F.,.T.,.U.)B_SPLINE_SURFACE_WITH_KNOTS((3,2,3),(3,2,2,2,3),(-7.216450E-015,1.570796326794897,3.141592653589800),(0.0,1.570796326794897,3.141592653589793,4.712388980384690,6.283185307179586),.UNSPECIFIED.)GEOMETRIC_REPRESENTATION_ITEM()RATIONAL_B_SPLINE_SURFACE(((1.0,0.707106781186548,1.0,0.707106781186548,1.0,0.707106781186548,1.0,0.707106781186548,1.0),(0.707106781186547,0.500000000000000,0.707106781186547,0.500000000000000,0.707106781186547,0.500000000000000,0.707106781186547,0.500000000000000,0.707106781186547),(1.0,0.707106781186548,1.0,0.707106781186548,1.0,0.707106781186548,1.0,0.707106781186548,1.0),(0.707106781186547,0.500000000000000,0.707106781186547,0.500000000000000,0.707106781186547,0.500000000000000,0.707106781186547,0.500000000000000,0.707106781186547),(1.0,0.707106781186548,1.0,0.707106781186548,1.0,0.707106781186548,1.0,0.707106781186548,1.0)))REPRESENTATION_ITEM('')SURFACE());
#169=CARTESIAN_POINT('',(-1.400000000000007,9.299999999999997,0.0));
#170=VERTEX_POINT('',#169);
#171=CARTESIAN_POINT('',(-1.400000000000007,0.0,0.0));
#172=DIRECTION('',(1.0,0.0,0.0));
#173=DIRECTION('',(0.0,1.0,0.0));
#174=AXIS2_PLACEMENT_3D('',#171,#172,#173);
#175=CIRCLE('',#174,9.299999999999997);
#176=EDGE_CURVE('',#170,#170,#175,.T.);
#177=ORIENTED_EDGE('',*,*,#176,.F.);
#178=EDGE_LOOP('',(#177));
#179=FACE_OUTER_BOUND('',#178,.T.);
#180=ORIENTED_EDGE('',*,*,#108,.T.);
#181=EDGE_LOOP('',(#180));
#182=FACE_BOUND('',#181,.T.);
#183=ADVANCED_FACE('',(#179,#182),#168,.T.);
#184=CARTESIAN_POINT('',(-1.425000000000003,0.0,0.0));
#185=DIRECTION('',(1.0,0.0,0.0));
#186=DIRECTION('',(0.0,1.0,0.0));
#187=AXIS2_PLACEMENT_3D('',#184,#185,#186);
#188=CYLINDRICAL_SURFACE('',#187,9.299999999999999);
#189=CARTESIAN_POINT('',(-1.449999999999999,9.300000000000001,0.0));
#190=VERTEX_POINT('',#189);
#191=CARTESIAN_POINT('',(-1.449999999999999,0.0,0.0));
#192=DIRECTION('',(1.0,0.0,0.0));
#193=DIRECTION('',(0.0,1.0,0.0));
#194=AXIS2_PLACEMENT_3D('',#191,#192,#193);
#195=CIRCLE('',#194,9.300000000000001);
#196=EDGE_CURVE('',#190,#190,#195,.T.);
#197=ORIENTED_EDGE('',*,*,#196,.F.);
#198=EDGE_LOOP('',(#197));
#199=FACE_OUTER_BOUND('',#198,.T.);
#200=ORIENTED_EDGE('',*,*,#176,.T.);
#201=EDGE_LOOP('',(#200));
#202=FACE_BOUND('',#201,.T.);
#203=ADVANCED_FACE('',(#199,#202),#188,.F.);
#204=CARTESIAN_POINT('',(-1.449999999999999,0.0,0.0));
#205=DIRECTION('',(1.0,0.0,0.0));
#206=DIRECTION('',(0.0,0.0,-1.0));
#207=AXIS2_PLACEMENT_3D('',#204,#205,#206);
#208=TOROIDAL_SURFACE('',#207,10.100000000000000,0.800000000000000);
#209=CARTESIAN_POINT('',(-1.449999999999999,10.900000000000002,0.0));
#210=VERTEX_POINT('',#209);
#211=CARTESIAN_POINT('',(-1.449999999999999,0.0,0.0));
#212=DIRECTION('',(1.0,0.0,0.0));
#213=DIRECTION('',(0.0,1.0,0.0));
#214=AXIS2_PLACEMENT_3D('',#211,#212,#213);
#215=CIRCLE('',#214,10.900000000000002);
#216=EDGE_CURVE('',#210,#210,#215,.T.);
#217=ORIENTED_EDGE('',*,*,#216,.F.);
#218=EDGE_LOOP('',(#217));
#219=FACE_OUTER_BOUND('',#218,.T.);
#220=ORIENTED_EDGE('',*,*,#196,.T.);
#221=EDGE_LOOP('',(#220));
#222=FACE_BOUND('',#221,.T.);
#223=ADVANCED_FACE('',(#219,#222),#208,.T.);
#224=CARTESIAN_POINT('',(0.0,0.0,0.0));
#225=DIRECTION('',(1.0,0.0,0.0));
#226=DIRECTION('',(0.0,1.0,0.0));
#227=AXIS2_PLACEMENT_3D('',#224,#225,#226);
#228=CYLINDRICAL_SURFACE('',#227,10.900000000000002);
#229=CARTESIAN_POINT('',(1.449999999999999,10.900000000000002,0.0));
#230=VERTEX_POINT('',#229);
#231=CARTESIAN_POINT('',(1.449999999999999,0.0,0.0));
#232=DIRECTION('',(1.0,0.0,0.0));
#233=DIRECTION('',(0.0,1.0,0.0));
#234=AXIS2_PLACEMENT_3D('',#231,#232,#233);
#235=CIRCLE('',#234,10.900000000000002);
#236=EDGE_CURVE('',#230,#230,#235,.T.);
#237=ORIENTED_EDGE('',*,*,#236,.F.);
#238=EDGE_LOOP('',(#237));
#239=FACE_OUTER_BOUND('',#238,.T.);
#240=ORIENTED_EDGE('',*,*,#216,.T.);
#241=EDGE_LOOP('',(#240));
#242=FACE_BOUND('',#241,.T.);
#243=ADVANCED_FACE('',(#239,#242),#228,.T.);
#244=CARTESIAN_POINT('',(1.450000000000001,0.0,0.0));
#245=DIRECTION('',(1.0,0.0,0.0));
#246=DIRECTION('',(0.0,0.0,-1.0));
#247=AXIS2_PLACEMENT_3D('',#244,#245,#246);
#248=TOROIDAL_SURFACE('',#247,10.100000000000000,0.800000000000000);
#249=CARTESIAN_POINT('',(1.450000000000000,9.299999999999999,0.0));
#250=VERTEX_POINT('',#249);
#251=CARTESIAN_POINT('',(1.450000000000000,0.0,0.0));
#252=DIRECTION('',(1.0,0.0,0.0));
#253=DIRECTION('',(0.0,1.0,0.0));
#254=AXIS2_PLACEMENT_3D('',#251,#252,#253);
#255=CIRCLE('',#254,9.299999999999999);
#256=EDGE_CURVE('',#250,#250,#255,.T.);
#257=ORIENTED_EDGE('',*,*,#256,.F.);
#258=EDGE_LOOP('',(#257));
#259=FACE_OUTER_BOUND('',#258,.T.);
#260=ORIENTED_EDGE('',*,*,#236,.T.);
#261=EDGE_LOOP('',(#260));
#262=FACE_BOUND('',#261,.T.);
#263=ADVANCED_FACE('',(#259,#262),#248,.T.);
#264=CARTESIAN_POINT('',(1.410572514728073,0.0,0.0));
#265=DIRECTION('',(1.0,0.0,0.0));
#266=DIRECTION('',(0.0,1.0,0.0));
#267=AXIS2_PLACEMENT_3D('',#264,#265,#266);
#268=CYLINDRICAL_SURFACE('',#267,9.300000000000001);
#269=CARTESIAN_POINT('',(1.371145029456147,9.300000000000001,0.0));
#270=VERTEX_POINT('',#269);
#271=CARTESIAN_POINT('',(1.371145029456147,0.0,0.0));
#272=DIRECTION('',(1.0,0.0,0.0));
#273=DIRECTION('',(0.0,1.0,0.0));
#274=AXIS2_PLACEMENT_3D('',#271,#272,#273);
#275=CIRCLE('',#274,9.300000000000001);
#276=EDGE_CURVE('',#270,#270,#275,.T.);
#277=ORIENTED_EDGE('',*,*,#276,.F.);
#278=EDGE_LOOP('',(#277));
#279=FACE_OUTER_BOUND('',#278,.T.);
#280=ORIENTED_EDGE('',*,*,#256,.T.);
#281=EDGE_LOOP('',(#280));
#282=FACE_BOUND('',#281,.T.);
#283=ADVANCED_FACE('',(#279,#282),#268,.F.);
#284=CARTESIAN_POINT('',(1.371145029456147,-1.041171E-015,8.502084238343638));
#285=CARTESIAN_POINT('',(0.999999999999998,-1.044458E-015,8.528927620582943));
#286=CARTESIAN_POINT('',(0.999999999999998,-1.090027E-015,8.901042119171819));
#287=CARTESIAN_POINT('',(0.999999999999998,-1.135597E-015,9.273156617760696));
#288=CARTESIAN_POINT('',(1.371145029456147,-1.138884E-015,9.300000000000001));
#289=CARTESIAN_POINT('',(1.371145029456147,-8.502084238343638,8.502084238343635));
#290=CARTESIAN_POINT('',(0.999999999999998,-8.528927620582943,8.528927620582939));
#291=CARTESIAN_POINT('',(0.999999999999997,-8.901042119171819,8.901042119171816));
#292=CARTESIAN_POINT('',(0.999999999999998,-9.273156617760696,9.273156617760693));
#293=CARTESIAN_POINT('',(1.371145029456147,-9.300000000000001,9.299999999999997));
#294=CARTESIAN_POINT('',(1.371145029456147,-8.502084238343638,-1.041171E-015));
#295=CARTESIAN_POINT('',(0.999999999999998,-8.528927620582943,-1.044458E-015));
#296=CARTESIAN_POINT('',(0.999999999999998,-8.901042119171819,-1.090027E-015));
#297=CARTESIAN_POINT('',(0.999999999999998,-9.273156617760696,-1.135597E-015));
#298=CARTESIAN_POINT('',(1.371145029456147,-9.300000000000001,-1.138884E-015));
#299=CARTESIAN_POINT('',(1.371145029456147,-8.502084238343635,-8.502084238343638));
#300=CARTESIAN_POINT('',(0.999999999999998,-8.528927620582939,-8.528927620582943));
#301=CARTESIAN_POINT('',(0.999999999999997,-8.901042119171816,-8.901042119171819));
#302=CARTESIAN_POINT('',(0.999999999999998,-9.273156617760693,-9.273156617760696));
#303=CARTESIAN_POINT('',(1.371145029456147,-9.299999999999997,-9.300000000000001));
#304=CARTESIAN_POINT('',(1.371145029456147,1.041171E-015,-8.502084238343638));
#305=CARTESIAN_POINT('',(0.999999999999998,1.044458E-015,-8.528927620582943));
#306=CARTESIAN_POINT('',(0.999999999999998,1.090027E-015,-8.901042119171819));
#307=CARTESIAN_POINT('',(0.999999999999998,1.135597E-015,-9.273156617760696));
#308=CARTESIAN_POINT('',(1.371145029456147,1.138884E-015,-9.300000000000001));
#309=CARTESIAN_POINT('',(1.371145029456147,8.502084238343638,-8.502084238343635));
#310=CARTESIAN_POINT('',(0.999999999999998,8.528927620582943,-8.528927620582939));
#311=CARTESIAN_POINT('',(0.999999999999997,8.901042119171819,-8.901042119171816));
#312=CARTESIAN_POINT('',(0.999999999999998,9.273156617760696,-9.273156617760693));
#313=CARTESIAN_POINT('',(1.371145029456147,9.300000000000001,-9.299999999999997));
#314=CARTESIAN_POINT('',(1.371145029456147,8.502084238343638,1.041171E-015));
#315=CARTESIAN_POINT('',(0.999999999999998,8.528927620582943,1.044458E-015));
#316=CARTESIAN_POINT('',(0.999999999999998,8.901042119171819,1.090027E-015));
#317=CARTESIAN_POINT('',(0.999999999999998,9.273156617760696,1.135597E-015));
#318=CARTESIAN_POINT('',(1.371145029456147,9.300000000000001,1.138884E-015));
#319=CARTESIAN_POINT('',(1.371145029456147,8.502084238343635,8.502084238343638));
#320=CARTESIAN_POINT('',(0.999999999999998,8.528927620582939,8.528927620582943));
#321=CARTESIAN_POINT('',(0.999999999999997,8.901042119171816,8.901042119171819));
#322=CARTESIAN_POINT('',(0.999999999999998,9.273156617760693,9.273156617760696));
#323=CARTESIAN_POINT('',(1.371145029456147,9.299999999999997,9.300000000000001));
#324=CARTESIAN_POINT('',(1.371145029456147,-1.041171E-015,8.502084238343638));
#325=CARTESIAN_POINT('',(0.999999999999998,-1.044458E-015,8.528927620582943));
#326=CARTESIAN_POINT('',(0.999999999999998,-1.090027E-015,8.901042119171819));
#327=CARTESIAN_POINT('',(0.999999999999998,-1.135597E-015,9.273156617760696));
#328=CARTESIAN_POINT('',(1.371145029456147,-1.138884E-015,9.300000000000001));
#336=(BOUNDED_SURFACE()B_SPLINE_SURFACE(2,2,((#284,#289,#294,#299,#304,#309,#314,#319,#324),(#285,#290,#295,#300,#305,#310,#315,#320,#325),(#286,#291,#296,#301,#306,#311,#316,#321,#326),(#287,#292,#297,#302,#307,#312,#317,#322,#327),(#288,#293,#298,#303,#308,#313,#318,#323,#328)),.UNSPECIFIED.,.F.,.T.,.U.)B_SPLINE_SURFACE_WITH_KNOTS((3,2,3),(3,2,2,2,3),(-3.069392515376226,-1.570796326794897,-0.072200138213567),(0.0,1.570796326794897,3.141592653589793,4.712388980384690,6.283185307179586),.UNSPECIFIED.)GEOMETRIC_REPRESENTATION_ITEM()RATIONAL_B_SPLINE_SURFACE(((1.0,0.707106781186548,1.0,0.707106781186548,1.0,0.707106781186548,1.0,0.707106781186548,1.0),(0.732167134730742,0.517720345930032,0.732167134730742,0.517720345930032,0.732167134730742,0.517720345930032,0.732167134730742,0.517720345930032,0.732167134730742),(1.0,0.707106781186548,1.0,0.707106781186548,1.0,0.707106781186548,1.0,0.707106781186548,1.0),(0.732167134730740,0.517720345930031,0.732167134730740,0.517720345930031,0.732167134730740,0.517720345930031,0.732167134730740,0.517720345930031,0.732167134730740),(1.0,0.707106781186548,1.0,0.707106781186548,1.0,0.707106781186548,1.0,0.707106781186548,1.0)))REPRESENTATION_ITEM('')SURFACE());
#337=CARTESIAN_POINT('',(0.999999999999998,8.901042119171819,0.0));
#338=VERTEX_POINT('',#337);
#339=CARTESIAN_POINT('',(0.999999999999998,0.0,0.0));
#340=DIRECTION('',(1.0,0.0,0.0));
#341=DIRECTION('',(0.0,1.0,0.0));
#342=AXIS2_PLACEMENT_3D('',#339,#340,#341);
#343=CIRCLE('',#342,8.901042119171819);
#344=EDGE_CURVE('',#338,#338,#343,.T.);
#345=ORIENTED_EDGE('',*,*,#344,.F.);
#346=EDGE_LOOP('',(#345));
#347=FACE_OUTER_BOUND('',#346,.T.);
#348=ORIENTED_EDGE('',*,*,#276,.T.);
#349=EDGE_LOOP('',(#348));
#350=FACE_BOUND('',#349,.T.);
#351=ADVANCED_FACE('',(#347,#350),#336,.T.);
#352=CARTESIAN_POINT('',(1.0,8.450521059585910,0.0));
#353=DIRECTION('',(1.0,0.0,0.0));
#354=DIRECTION('',(0.0,0.0,-1.0));
#355=AXIS2_PLACEMENT_3D('',#352,#353,#354);
#356=PLANE('',#355);
#357=ORIENTED_EDGE('',*,*,#344,.T.);
#358=EDGE_LOOP('',(#357));
#359=FACE_OUTER_BOUND('',#358,.T.);
#360=ORIENTED_EDGE('',*,*,#91,.F.);
#361=EDGE_LOOP('',(#360));
#362=FACE_BOUND('',#361,.T.);
#363=ADVANCED_FACE('',(#359,#362),#356,.T.);
#364=CLOSED_SHELL('',(#95,#115,#183,#203,#223,#243,#263,#283,#351,#363));
#365=MANIFOLD_SOLID_BREP('',#364);
#366=COLOUR_RGB('Metall - Stahl',0.639216005802155,0.639216005802155,0.686275005340576);
#367=FILL_AREA_STYLE_COLOUR('Metall - Stahl',#366);
#368=FILL_AREA_STYLE('Metall - Stahl',(#367));
#369=SURFACE_STYLE_FILL_AREA(#368);
#370=SURFACE_SIDE_STYLE('Metall - Stahl',(#369));
#371=SURFACE_STYLE_USAGE(.BOTH.,#370);
#372=PRESENTATION_STYLE_ASSIGNMENT((#371));
#373=STYLED_ITEM('',(#372),#365);
#374=MECHANICAL_DESIGN_GEOMETRIC_PRESENTATION_REPRESENTATION('',(#373),#36);
#375=ADVANCED_BREP_SHAPE_REPRESENTATION('ABSR',(#365),#36);
#376=SHAPE_REPRESENTATION_RELATIONSHIP('SRR','None',#375,#41);
ENDSEC;
END-ISO-10303-21;
