ISO-10303-21;
HEADER;
/****************************************************************
 * Generated by software with PDE/Lib inside                    *
 * PDElib Version v51a, created Thu 01/14/2010                  *
 * ITI Transcendata (http://www.transcendata.com/)              *
 ****************************************************************/
FILE_DESCRIPTION((''),'2;1');
FILE_NAME('P:\\2. PROJECTEN\\2017\\PRO.1703.01\\3. ONTWERP\\PRO.1703.01 - 0\\2. PARTS\\200 PIPING\\T-stuk kort - 1.0inch.stp','2017-03-06T12:49:23',('Engineer'),(''),'Autodesk Inventor 2011','Autodesk Inventor 2011','');
FILE_SCHEMA(('AUTOMOTIVE_DESIGN { 1 0 10303 214 1 1 1 1 }'));
ENDSEC;
DATA;
#5=APPLICATION_CONTEXT('automotive design');
#6=APPLICATION_PROTOCOL_DEFINITION('International Standard','automotive_design',2001,#5);
#7=PRODUCT_CONTEXT('',#5,'mechanical');
#8=PRODUCT('T-stuk kort iPart','T-stuk kort iPart',$,(#7));
#9=PRODUCT_RELATED_PRODUCT_CATEGORY('part',$,(#8));
#10=PRODUCT_DEFINITION_FORMATION('',$,#8);
#11=PRODUCT_DEFINITION_CONTEXT('part definition',#5,'design');
#12=PRODUCT_DEFINITION('',$,#10,#11);
#18=(NAMED_UNIT(*)PLANE_ANGLE_UNIT()SI_UNIT($,.RADIAN.));
#19=DIMENSIONAL_EXPONENTS(0.0,0.0,0.0,0.0,0.0,0.0,0.0);
#20=PLANE_ANGLE_MEASURE_WITH_UNIT(PLANE_ANGLE_MEASURE(0.017453292500000),#18);
#24=(CONVERSION_BASED_UNIT('DEGREE',#20)NAMED_UNIT(#19)PLANE_ANGLE_UNIT());
#28=(NAMED_UNIT(*)SI_UNIT($,.STERADIAN.)SOLID_ANGLE_UNIT());
#32=(LENGTH_UNIT()NAMED_UNIT(*)SI_UNIT(.MILLI.,.METRE.));
#34=UNCERTAINTY_MEASURE_WITH_UNIT(LENGTH_MEASURE(0.010000000000000),#32,'DISTANCE_ACCURACY_VALUE','');
#36=(GEOMETRIC_REPRESENTATION_CONTEXT(3)GLOBAL_UNCERTAINTY_ASSIGNED_CONTEXT((#34))GLOBAL_UNIT_ASSIGNED_CONTEXT((#24,#28,#32))REPRESENTATION_CONTEXT('None','None'));
#37=AXIS2_PLACEMENT_3D('',#38,#39,#40);
#38=CARTESIAN_POINT('',(0.0,0.0,0.0));
#39=DIRECTION('',(0.0,0.0,1.0));
#40=DIRECTION('',(1.0,0.0,0.0));
#41=SHAPE_REPRESENTATION('',(#37),#36);
#42=PRODUCT_DEFINITION_SHAPE('','',#12);
#43=SHAPE_DEFINITION_REPRESENTATION(#42,#41);
#49=(NAMED_UNIT(*)PLANE_ANGLE_UNIT()SI_UNIT($,.RADIAN.));
#50=DIMENSIONAL_EXPONENTS(0.0,0.0,0.0,0.0,0.0,0.0,0.0);
#51=PLANE_ANGLE_MEASURE_WITH_UNIT(PLANE_ANGLE_MEASURE(0.017453292500000),#49);
#55=(CONVERSION_BASED_UNIT('DEGREE',#51)NAMED_UNIT(#50)PLANE_ANGLE_UNIT());
#59=(NAMED_UNIT(*)SI_UNIT($,.STERADIAN.)SOLID_ANGLE_UNIT());
#63=(LENGTH_UNIT()NAMED_UNIT(*)SI_UNIT(.MILLI.,.METRE.));
#65=UNCERTAINTY_MEASURE_WITH_UNIT(LENGTH_MEASURE(0.000001000000000),#63,'DISTANCE_ACCURACY_VALUE','');
#67=(GEOMETRIC_REPRESENTATION_CONTEXT(3)GLOBAL_UNCERTAINTY_ASSIGNED_CONTEXT((#65))GLOBAL_UNIT_ASSIGNED_CONTEXT((#55,#59,#63))REPRESENTATION_CONTEXT('','3D'));
#68=CARTESIAN_POINT('',(2.042316E-015,-12.699999999999999,8.082669E-016));
#69=CARTESIAN_POINT('',(2.042316E-015,-12.699999999999999,8.082669E-016));
#70=CARTESIAN_POINT('',(2.042316E-015,-12.699999999999999,8.082669E-016));
#71=CARTESIAN_POINT('',(2.042316E-015,-12.699999999999999,8.082669E-016));
#72=CARTESIAN_POINT('',(2.042316E-015,-12.699999999999999,8.082669E-016));
#73=CARTESIAN_POINT('',(1.899915557170972,-12.699999999999999,1.974715382256442));
#74=CARTESIAN_POINT('',(1.912382194685219,-12.699999999999999,1.962248744742193));
#75=CARTESIAN_POINT('',(1.937315469713704,-12.699999999999999,1.937315469713712));
#76=CARTESIAN_POINT('',(1.962248744742201,-12.699999999999999,1.912382194685213));
#77=CARTESIAN_POINT('',(1.974715382256444,-12.699999999999999,1.899915557170971));
#78=CARTESIAN_POINT('',(5.699293227104199,-11.834259758558126,5.923674850218531));
#79=CARTESIAN_POINT('',(5.736203484853820,-11.822633359278063,5.885864911606968));
#80=CARTESIAN_POINT('',(5.810229115837458,-11.811414061969955,5.810229115837460));
#81=CARTESIAN_POINT('',(5.885864911606968,-11.822633359278058,5.736203484853827));
#82=CARTESIAN_POINT('',(5.923674850218531,-11.834259758558126,5.699293227104199));
#83=CARTESIAN_POINT('',(10.267986748878041,-8.188565039023271,10.672238195684272));
#84=CARTESIAN_POINT('',(10.307788420939596,-8.140430923055700,10.590810491265900));
#85=CARTESIAN_POINT('',(10.427763244357397,-8.088591841194752,10.427763244357397));
#86=CARTESIAN_POINT('',(10.590810491265897,-8.140430923055700,10.307788420939596));
#87=CARTESIAN_POINT('',(10.672238195684272,-8.188565039023271,10.267986748878045));
#88=CARTESIAN_POINT('',(12.806216859123323,-2.922889475644675,13.310398625230537));
#89=CARTESIAN_POINT('',(12.804893201092970,-2.884219323168265,13.177798377688683));
#90=CARTESIAN_POINT('',(12.913996386919038,-2.838959057073499,12.913996386919035));
#91=CARTESIAN_POINT('',(13.177798377688690,-2.884219323168266,12.804893201092968));
#92=CARTESIAN_POINT('',(13.310398625230540,-2.922889475644674,12.806216859123321));
#93=CARTESIAN_POINT('',(12.803908887718674,2.922479849402670,13.307999788809958));
#94=CARTESIAN_POINT('',(12.803025442251982,2.884213807203726,13.175647375613055));
#95=CARTESIAN_POINT('',(12.912131971960720,2.839211022925183,12.912131971960722));
#96=CARTESIAN_POINT('',(13.175647375613057,2.884213807203729,12.803025442251986));
#97=CARTESIAN_POINT('',(13.307999788809955,2.922479849402667,12.803908887718672));
#98=CARTESIAN_POINT('',(10.269956441660772,8.189664579423596,10.674285435426942));
#99=CARTESIAN_POINT('',(10.310119416678347,8.141292149331669,10.593070197675763));
#100=CARTESIAN_POINT('',(10.430379015879932,8.089394083540224,10.430379015879936));
#101=CARTESIAN_POINT('',(10.593070197675763,8.141292149331665,10.310119416678345));
#102=CARTESIAN_POINT('',(10.674285435426953,8.189664579423596,10.269956441660774));
#103=CARTESIAN_POINT('',(5.698047659592903,11.833258226917504,5.922380244616251));
#104=CARTESIAN_POINT('',(5.734882796618631,11.821523777510778,5.884599256238364));
#105=CARTESIAN_POINT('',(5.809085721074360,11.810128695227274,5.809085721074359));
#106=CARTESIAN_POINT('',(5.884599256238360,11.821523777510780,5.734882796618637));
#107=CARTESIAN_POINT('',(5.922380244616241,11.833258226917504,5.698047659592901));
#108=CARTESIAN_POINT('',(1.899915557170972,12.699999999999999,1.974715382256442));
#109=CARTESIAN_POINT('',(1.912382194685219,12.699999999999999,1.962248744742193));
#110=CARTESIAN_POINT('',(1.937315469713704,12.699999999999999,1.937315469713712));
#111=CARTESIAN_POINT('',(1.962248744742201,12.699999999999999,1.912382194685212));
#112=CARTESIAN_POINT('',(1.974715382256444,12.699999999999999,1.899915557170971));
#113=CARTESIAN_POINT('',(2.042316E-015,12.699999999999999,8.082669E-016));
#114=CARTESIAN_POINT('',(2.069087E-015,12.699999999999999,7.814958E-016));
#115=CARTESIAN_POINT('',(2.122629E-015,12.699999999999999,7.279537E-016));
#116=CARTESIAN_POINT('',(2.176171E-015,12.699999999999999,6.744117E-016));
#117=CARTESIAN_POINT('',(2.202942E-015,12.699999999999999,6.476406E-016));
#118=B_SPLINE_SURFACE_WITH_KNOTS('',3,3,((#68,#73,#78,#83,#88,#93,#98,#103,#108,#113),(#69,#74,#79,#84,#89,#94,#99,#104,#109,#114),(#70,#75,#80,#85,#90,#95,#100,#105,#110,#115),(#71,#76,#81,#86,#91,#96,#101,#106,#111,#116),(#72,#77,#82,#87,#92,#97,#102,#107,#112,#117)),.UNSPECIFIED.,.F.,.F.,.U.,(4,1,4),(4,1,1,1,1,1,1,4),(0.0,0.500000000000000,1.0),(-1.570796326794897,-1.121997376282069,-0.673198425769241,-0.224399475256414,0.224399475256414,0.673198425769241,1.121997376282069,1.570796326794897),.UNSPECIFIED.);
#119=CARTESIAN_POINT('',(0.0,-12.699999999999999,0.0));
#120=VERTEX_POINT('',#119);
#121=CARTESIAN_POINT('',(0.0,12.699999999999999,0.0));
#122=VERTEX_POINT('',#121);
#123=CARTESIAN_POINT('',(0.0,0.0,0.0));
#124=DIRECTION('',(-0.693326887320855,0.0,0.720623221467345));
#125=DIRECTION('',(0.720623221467345,0.0,0.693326887320855));
#126=AXIS2_PLACEMENT_3D('',#123,#124,#125);
#127=ELLIPSE('',#126,18.317477992343814,12.699999999999999);
#128=EDGE_CURVE('',#120,#122,#127,.T.);
#129=ORIENTED_EDGE('',*,*,#128,.T.);
#130=CARTESIAN_POINT('',(0.0,0.0,0.0));
#131=DIRECTION('',(0.720623221467345,0.0,-0.693326887320855));
#132=DIRECTION('',(0.693326887320855,0.0,0.720623221467345));
#133=AXIS2_PLACEMENT_3D('',#130,#131,#132);
#134=ELLIPSE('',#133,18.317477992343814,12.699999999999999);
#135=EDGE_CURVE('',#122,#120,#134,.T.);
#136=ORIENTED_EDGE('',*,*,#135,.T.);
#137=EDGE_LOOP('',(#129,#136));
#138=FACE_OUTER_BOUND('',#137,.T.);
#139=ADVANCED_FACE('',(#138),#118,.T.);
#140=CARTESIAN_POINT('',(2.042316E-015,12.699999999999999,-8.082669E-016));
#141=CARTESIAN_POINT('',(2.042316E-015,12.699999999999999,-8.082669E-016));
#142=CARTESIAN_POINT('',(2.042316E-015,12.699999999999999,-8.082669E-016));
#143=CARTESIAN_POINT('',(2.042316E-015,12.699999999999999,-8.082669E-016));
#144=CARTESIAN_POINT('',(2.042316E-015,12.699999999999999,-8.082669E-016));
#145=CARTESIAN_POINT('',(1.899915557170972,12.699999999999999,-1.974715382256442));
#146=CARTESIAN_POINT('',(1.912382194685219,12.699999999999999,-1.962248744742193));
#147=CARTESIAN_POINT('',(1.937315469713704,12.699999999999999,-1.937315469713712));
#148=CARTESIAN_POINT('',(1.962248744742201,12.699999999999999,-1.912382194685213));
#149=CARTESIAN_POINT('',(1.974715382256444,12.699999999999999,-1.899915557170971));
#150=CARTESIAN_POINT('',(5.699293227104199,11.834259758558126,-5.923674850218531));
#151=CARTESIAN_POINT('',(5.736203484853820,11.822633359278063,-5.885864911606972));
#152=CARTESIAN_POINT('',(5.810229115837458,11.811414061969955,-5.810229115837458));
#153=CARTESIAN_POINT('',(5.885864911606971,11.822633359278058,-5.736203484853827));
#154=CARTESIAN_POINT('',(5.923674850218531,11.834259758558126,-5.699293227104199));
#155=CARTESIAN_POINT('',(10.267986748878041,8.188565039023271,-10.672238195684272));
#156=CARTESIAN_POINT('',(10.307788420939596,8.140430923055700,-10.590810491265898));
#157=CARTESIAN_POINT('',(10.427763244357397,8.088591841194752,-10.427763244357397));
#158=CARTESIAN_POINT('',(10.590810491265897,8.140430923055700,-10.307788420939596));
#159=CARTESIAN_POINT('',(10.672238195684272,8.188565039023271,-10.267986748878045));
#160=CARTESIAN_POINT('',(12.806216859123323,2.922889475644676,-13.310398625230537));
#161=CARTESIAN_POINT('',(12.804893201092970,2.884219323168267,-13.177798377688690));
#162=CARTESIAN_POINT('',(12.913996386919038,2.838959057073500,-12.913996386919035));
#163=CARTESIAN_POINT('',(13.177798377688690,2.884219323168267,-12.804893201092968));
#164=CARTESIAN_POINT('',(13.310398625230540,2.922889475644674,-12.806216859123321));
#165=CARTESIAN_POINT('',(12.803908887718674,-2.922479849402670,-13.307999788809958));
#166=CARTESIAN_POINT('',(12.803025442251982,-2.884213807203726,-13.175647375613055));
#167=CARTESIAN_POINT('',(12.912131971960720,-2.839211022925184,-12.912131971960722));
#168=CARTESIAN_POINT('',(13.175647375613055,-2.884213807203729,-12.803025442251986));
#169=CARTESIAN_POINT('',(13.307999788809955,-2.922479849402668,-12.803908887718672));
#170=CARTESIAN_POINT('',(10.269956441660772,-8.189664579423596,-10.674285435426942));
#171=CARTESIAN_POINT('',(10.310119416678347,-8.141292149331669,-10.593070197675763));
#172=CARTESIAN_POINT('',(10.430379015879932,-8.089394083540224,-10.430379015879936));
#173=CARTESIAN_POINT('',(10.593070197675763,-8.141292149331665,-10.310119416678344));
#174=CARTESIAN_POINT('',(10.674285435426953,-8.189664579423594,-10.269956441660774));
#175=CARTESIAN_POINT('',(5.698047659592903,-11.833258226917504,-5.922380244616251));
#176=CARTESIAN_POINT('',(5.734882796618631,-11.821523777510778,-5.884599256238361));
#177=CARTESIAN_POINT('',(5.809085721074361,-11.810128695227277,-5.809085721074359));
#178=CARTESIAN_POINT('',(5.884599256238358,-11.821523777510780,-5.734882796618636));
#179=CARTESIAN_POINT('',(5.922380244616241,-11.833258226917504,-5.698047659592901));
#180=CARTESIAN_POINT('',(1.899915557170972,-12.699999999999999,-1.974715382256442));
#181=CARTESIAN_POINT('',(1.912382194685219,-12.699999999999999,-1.962248744742193));
#182=CARTESIAN_POINT('',(1.937315469713704,-12.699999999999999,-1.937315469713712));
#183=CARTESIAN_POINT('',(1.962248744742201,-12.699999999999999,-1.912382194685213));
#184=CARTESIAN_POINT('',(1.974715382256444,-12.699999999999999,-1.899915557170971));
#185=CARTESIAN_POINT('',(2.042316E-015,-12.699999999999999,-8.082669E-016));
#186=CARTESIAN_POINT('',(2.042316E-015,-12.699999999999999,-8.082669E-016));
#187=CARTESIAN_POINT('',(2.042316E-015,-12.699999999999999,-8.082669E-016));
#188=CARTESIAN_POINT('',(2.042316E-015,-12.699999999999999,-8.082669E-016));
#189=CARTESIAN_POINT('',(2.042316E-015,-12.699999999999999,-8.082669E-016));
#190=B_SPLINE_SURFACE_WITH_KNOTS('',3,3,((#140,#145,#150,#155,#160,#165,#170,#175,#180,#185),(#141,#146,#151,#156,#161,#166,#171,#176,#181,#186),(#142,#147,#152,#157,#162,#167,#172,#177,#182,#187),(#143,#148,#153,#158,#163,#168,#173,#178,#183,#188),(#144,#149,#154,#159,#164,#169,#174,#179,#184,#189)),.UNSPECIFIED.,.F.,.F.,.U.,(4,1,4),(4,1,1,1,1,1,1,4),(0.0,0.500000000000000,1.0),(-1.570796326794897,-1.121997376282069,-0.673198425769241,-0.224399475256414,0.224399475256414,0.673198425769241,1.121997376282069,1.570796326794897),.UNSPECIFIED.);
#191=CARTESIAN_POINT('',(0.0,0.0,0.0));
#192=DIRECTION('',(-0.693326887320855,0.0,-0.720623221467345));
#193=DIRECTION('',(0.720623221467345,0.0,-0.693326887320855));
#194=AXIS2_PLACEMENT_3D('',#191,#192,#193);
#195=ELLIPSE('',#194,18.317477992343814,12.699999999999999);
#196=EDGE_CURVE('',#122,#120,#195,.T.);
#197=ORIENTED_EDGE('',*,*,#196,.T.);
#198=CARTESIAN_POINT('',(0.0,0.0,0.0));
#199=DIRECTION('',(0.720623221467345,0.0,0.693326887320855));
#200=DIRECTION('',(0.693326887320855,0.0,-0.720623221467345));
#201=AXIS2_PLACEMENT_3D('',#198,#199,#200);
#202=ELLIPSE('',#201,18.317477992343814,12.699999999999999);
#203=EDGE_CURVE('',#120,#122,#202,.T.);
#204=ORIENTED_EDGE('',*,*,#203,.T.);
#205=EDGE_LOOP('',(#197,#204));
#206=FACE_OUTER_BOUND('',#205,.T.);
#207=ADVANCED_FACE('',(#206),#190,.T.);
#208=CARTESIAN_POINT('',(14.000000000000002,0.0,0.0));
#209=DIRECTION('',(-1.0,0.0,0.0));
#210=DIRECTION('',(0.0,-1.0,0.0));
#211=AXIS2_PLACEMENT_3D('',#208,#209,#210);
#212=CYLINDRICAL_SURFACE('',#211,11.050000000000001);
#213=CARTESIAN_POINT('',(0.0,-11.050000000000001,0.0));
#214=VERTEX_POINT('',#213);
#215=CARTESIAN_POINT('',(0.0,11.050000000000001,1.353235E-015));
#216=VERTEX_POINT('',#215);
#217=CARTESIAN_POINT('',(0.0,0.0,0.0));
#218=DIRECTION('',(0.707106781186548,0.0,0.707106781186548));
#219=DIRECTION('',(-0.707106781186548,0.0,0.707106781186548));
#220=AXIS2_PLACEMENT_3D('',#217,#218,#219);
#221=ELLIPSE('',#220,15.627059864222701,11.050000000000002);
#222=EDGE_CURVE('',#214,#216,#221,.T.);
#223=ORIENTED_EDGE('',*,*,#222,.F.);
#224=CARTESIAN_POINT('',(0.0,0.0,0.0));
#225=DIRECTION('',(0.707106781186548,0.0,-0.707106781186548));
#226=DIRECTION('',(0.707106781186548,0.0,0.707106781186548));
#227=AXIS2_PLACEMENT_3D('',#224,#225,#226);
#228=ELLIPSE('',#227,15.627059864222701,11.050000000000002);
#229=EDGE_CURVE('',#216,#214,#228,.T.);
#230=ORIENTED_EDGE('',*,*,#229,.F.);
#231=EDGE_LOOP('',(#223,#230));
#232=FACE_OUTER_BOUND('',#231,.T.);
#233=CARTESIAN_POINT('',(14.000000000000002,11.050000000000001,1.353235E-015));
#234=VERTEX_POINT('',#233);
#235=CARTESIAN_POINT('',(14.000000000000002,0.0,0.0));
#236=DIRECTION('',(-1.0,0.0,0.0));
#237=DIRECTION('',(0.0,-1.0,0.0));
#238=AXIS2_PLACEMENT_3D('',#235,#236,#237);
#239=CIRCLE('',#238,11.050000000000001);
#240=EDGE_CURVE('',#234,#234,#239,.T.);
#241=ORIENTED_EDGE('',*,*,#240,.F.);
#242=EDGE_LOOP('',(#241));
#243=FACE_BOUND('',#242,.T.);
#244=ADVANCED_FACE('',(#232,#243),#212,.F.);
#245=CARTESIAN_POINT('',(14.000000000000002,0.0,0.0));
#246=DIRECTION('',(-1.0,0.0,0.0));
#247=DIRECTION('',(0.0,-1.0,0.0));
#248=AXIS2_PLACEMENT_3D('',#245,#246,#247);
#249=CYLINDRICAL_SURFACE('',#248,12.699999999999999);
#250=ORIENTED_EDGE('',*,*,#196,.F.);
#251=ORIENTED_EDGE('',*,*,#128,.F.);
#252=EDGE_LOOP('',(#250,#251));
#253=FACE_OUTER_BOUND('',#252,.T.);
#254=CARTESIAN_POINT('',(14.000000000000002,12.699999999999999,1.555301E-015));
#255=VERTEX_POINT('',#254);
#256=CARTESIAN_POINT('',(14.000000000000002,0.0,0.0));
#257=DIRECTION('',(-1.0,0.0,0.0));
#258=DIRECTION('',(0.0,-1.0,0.0));
#259=AXIS2_PLACEMENT_3D('',#256,#257,#258);
#260=CIRCLE('',#259,12.699999999999999);
#261=EDGE_CURVE('',#255,#255,#260,.T.);
#262=ORIENTED_EDGE('',*,*,#261,.T.);
#263=EDGE_LOOP('',(#262));
#264=FACE_BOUND('',#263,.T.);
#265=ADVANCED_FACE('',(#253,#264),#249,.T.);
#266=CARTESIAN_POINT('',(14.000000000000002,0.0,0.0));
#267=DIRECTION('',(-1.0,0.0,0.0));
#268=DIRECTION('',(0.0,0.0,1.0));
#269=AXIS2_PLACEMENT_3D('',#266,#267,#268);
#270=PLANE('',#269);
#271=ORIENTED_EDGE('',*,*,#261,.F.);
#272=EDGE_LOOP('',(#271));
#273=FACE_OUTER_BOUND('',#272,.T.);
#274=ORIENTED_EDGE('',*,*,#240,.T.);
#275=EDGE_LOOP('',(#274));
#276=FACE_BOUND('',#275,.T.);
#277=ADVANCED_FACE('',(#273,#276),#270,.F.);
#278=CARTESIAN_POINT('',(0.0,0.0,0.0));
#279=DIRECTION('',(0.0,0.0,1.0));
#280=DIRECTION('',(-1.0,0.0,0.0));
#281=AXIS2_PLACEMENT_3D('',#278,#279,#280);
#282=CYLINDRICAL_SURFACE('',#281,12.699999999999999);
#283=CARTESIAN_POINT('',(12.699999999999999,1.555301E-015,44.0));
#284=VERTEX_POINT('',#283);
#285=CARTESIAN_POINT('',(0.0,0.0,44.0));
#286=DIRECTION('',(0.0,0.0,-1.0));
#287=DIRECTION('',(-1.0,0.0,0.0));
#288=AXIS2_PLACEMENT_3D('',#285,#286,#287);
#289=CIRCLE('',#288,12.699999999999999);
#290=EDGE_CURVE('',#284,#284,#289,.T.);
#291=ORIENTED_EDGE('',*,*,#290,.T.);
#292=EDGE_LOOP('',(#291));
#293=FACE_OUTER_BOUND('',#292,.T.);
#294=ORIENTED_EDGE('',*,*,#135,.F.);
#295=ORIENTED_EDGE('',*,*,#203,.F.);
#296=EDGE_LOOP('',(#294,#295));
#297=FACE_BOUND('',#296,.T.);
#298=CARTESIAN_POINT('',(12.699999999999999,1.555301E-015,-44.0));
#299=VERTEX_POINT('',#298);
#300=CARTESIAN_POINT('',(0.0,0.0,-44.0));
#301=DIRECTION('',(0.0,0.0,1.0));
#302=DIRECTION('',(-1.0,0.0,0.0));
#303=AXIS2_PLACEMENT_3D('',#300,#301,#302);
#304=CIRCLE('',#303,12.699999999999999);
#305=EDGE_CURVE('',#299,#299,#304,.T.);
#306=ORIENTED_EDGE('',*,*,#305,.T.);
#307=EDGE_LOOP('',(#306));
#308=FACE_BOUND('',#307,.T.);
#309=ADVANCED_FACE('',(#293,#297,#308),#282,.T.);
#310=CARTESIAN_POINT('',(0.0,0.0,0.0));
#311=DIRECTION('',(0.0,0.0,1.0));
#312=DIRECTION('',(-1.0,0.0,0.0));
#313=AXIS2_PLACEMENT_3D('',#310,#311,#312);
#314=CYLINDRICAL_SURFACE('',#313,11.050000000000001);
#315=CARTESIAN_POINT('',(11.050000000000001,1.353235E-015,-44.0));
#316=VERTEX_POINT('',#315);
#317=CARTESIAN_POINT('',(0.0,0.0,-44.0));
#318=DIRECTION('',(0.0,0.0,1.0));
#319=DIRECTION('',(-1.0,0.0,0.0));
#320=AXIS2_PLACEMENT_3D('',#317,#318,#319);
#321=CIRCLE('',#320,11.050000000000001);
#322=EDGE_CURVE('',#316,#316,#321,.T.);
#323=ORIENTED_EDGE('',*,*,#322,.F.);
#324=EDGE_LOOP('',(#323));
#325=FACE_OUTER_BOUND('',#324,.T.);
#326=ORIENTED_EDGE('',*,*,#222,.T.);
#327=ORIENTED_EDGE('',*,*,#229,.T.);
#328=EDGE_LOOP('',(#326,#327));
#329=FACE_BOUND('',#328,.T.);
#330=CARTESIAN_POINT('',(11.050000000000001,1.353235E-015,44.0));
#331=VERTEX_POINT('',#330);
#332=CARTESIAN_POINT('',(0.0,0.0,44.0));
#333=DIRECTION('',(0.0,0.0,-1.0));
#334=DIRECTION('',(-1.0,0.0,0.0));
#335=AXIS2_PLACEMENT_3D('',#332,#333,#334);
#336=CIRCLE('',#335,11.050000000000001);
#337=EDGE_CURVE('',#331,#331,#336,.T.);
#338=ORIENTED_EDGE('',*,*,#337,.F.);
#339=EDGE_LOOP('',(#338));
#340=FACE_BOUND('',#339,.T.);
#341=ADVANCED_FACE('',(#325,#329,#340),#314,.F.);
#342=CARTESIAN_POINT('',(0.0,0.0,-44.0));
#343=DIRECTION('',(0.0,0.0,-1.0));
#344=DIRECTION('',(-1.0,0.0,0.0));
#345=AXIS2_PLACEMENT_3D('',#342,#343,#344);
#346=PLANE('',#345);
#347=ORIENTED_EDGE('',*,*,#305,.F.);
#348=EDGE_LOOP('',(#347));
#349=FACE_OUTER_BOUND('',#348,.T.);
#350=ORIENTED_EDGE('',*,*,#322,.T.);
#351=EDGE_LOOP('',(#350));
#352=FACE_BOUND('',#351,.T.);
#353=ADVANCED_FACE('',(#349,#352),#346,.T.);
#354=CARTESIAN_POINT('',(0.0,0.0,44.0));
#355=DIRECTION('',(0.0,0.0,-1.0));
#356=DIRECTION('',(-1.0,0.0,0.0));
#357=AXIS2_PLACEMENT_3D('',#354,#355,#356);
#358=PLANE('',#357);
#359=ORIENTED_EDGE('',*,*,#290,.F.);
#360=EDGE_LOOP('',(#359));
#361=FACE_OUTER_BOUND('',#360,.T.);
#362=ORIENTED_EDGE('',*,*,#337,.T.);
#363=EDGE_LOOP('',(#362));
#364=FACE_BOUND('',#363,.T.);
#365=ADVANCED_FACE('',(#361,#364),#358,.F.);
#366=CLOSED_SHELL('',(#139,#207,#244,#265,#277,#309,#341,#353,#365));
#367=MANIFOLD_SOLID_BREP('Solid1',#366);
#368=COLOUR_RGB('Metal-Steel',0.639216005802155,0.639216005802155,0.686275005340576);
#369=FILL_AREA_STYLE_COLOUR('Metal-Steel',#368);
#370=FILL_AREA_STYLE('Metal-Steel',(#369));
#371=SURFACE_STYLE_FILL_AREA(#370);
#372=SURFACE_SIDE_STYLE('Metal-Steel',(#371));
#373=SURFACE_STYLE_USAGE(.BOTH.,#372);
#374=PRESENTATION_STYLE_ASSIGNMENT((#373));
#375=STYLED_ITEM('',(#374),#367);
#376=MECHANICAL_DESIGN_GEOMETRIC_PRESENTATION_REPRESENTATION('',(#375),#36);
#377=ADVANCED_BREP_SHAPE_REPRESENTATION('ABSR',(#367),#36);
#378=SHAPE_REPRESENTATION_RELATIONSHIP('SRR','None',#377,#41);
ENDSEC;
END-ISO-10303-21;
