ISO-10303-21;
HEADER;
/****************************************************************
 * Generated by software with PDE/Lib inside                    *
 * PDElib Version v51a, created Fri 12/12/2008                  *
 * International Technegroup Inc. (www.iti-oh.com)              *
 ****************************************************************/
FILE_DESCRIPTION((''),'2;1');
FILE_NAME('E:\\Zwischenspeicher\\18408010X100.stp','2010-08-11T11:37:17',('Creator'),(''),'Autodesk Inventor 2010','Autodesk Inventor 2010','');
FILE_SCHEMA(('AUTOMOTIVE_DESIGN { 1 0 10303 214 1 1 1 1 }'));
ENDSEC;
DATA;
#5=APPLICATION_CONTEXT('automotive design');
#6=APPLICATION_PROTOCOL_DEFINITION('International Standard','automotive_design',2001,#5);
#7=PRODUCT_CONTEXT('',#5,'mechanical');
#8=PRODUCT('ENG-004876','ENG-004876',$,(#7));
#9=PRODUCT_RELATED_PRODUCT_CATEGORY('part',$,(#8));
#10=PRODUCT_DEFINITION_FORMATION('',$,#8);
#11=PRODUCT_DEFINITION_CONTEXT('part definition',#5,'design');
#12=PRODUCT_DEFINITION('',$,#10,#11);
#18=(NAMED_UNIT(*)PLANE_ANGLE_UNIT()SI_UNIT($,.RADIAN.));
#19=DIMENSIONAL_EXPONENTS(0.0,0.0,0.0,0.0,0.0,0.0,0.0);
#20=PLANE_ANGLE_MEASURE_WITH_UNIT(PLANE_ANGLE_MEASURE(0.017453292500000),#18);
#24=(CONVERSION_BASED_UNIT('DEGREE',#20)NAMED_UNIT(#19)PLANE_ANGLE_UNIT());
#28=(NAMED_UNIT(*)SI_UNIT($,.STERADIAN.)SOLID_ANGLE_UNIT());
#32=(LENGTH_UNIT()NAMED_UNIT(*)SI_UNIT(.MILLI.,.METRE.));
#34=UNCERTAINTY_MEASURE_WITH_UNIT(LENGTH_MEASURE(0.010000000000000),#32,'DISTANCE_ACCURACY_VALUE','');
#36=(GEOMETRIC_REPRESENTATION_CONTEXT(3)GLOBAL_UNCERTAINTY_ASSIGNED_CONTEXT((#34))GLOBAL_UNIT_ASSIGNED_CONTEXT((#24,#28,#32))REPRESENTATION_CONTEXT('None','None'));
#37=AXIS2_PLACEMENT_3D('',#38,#39,#40);
#38=CARTESIAN_POINT('',(0.0,0.0,0.0));
#39=DIRECTION('',(0.0,0.0,1.0));
#40=DIRECTION('',(1.0,0.0,0.0));
#41=SHAPE_REPRESENTATION('',(#37),#36);
#42=PRODUCT_DEFINITION_SHAPE('','',#12);
#43=SHAPE_DEFINITION_REPRESENTATION(#42,#41);
#49=(NAMED_UNIT(*)PLANE_ANGLE_UNIT()SI_UNIT($,.RADIAN.));
#50=DIMENSIONAL_EXPONENTS(0.0,0.0,0.0,0.0,0.0,0.0,0.0);
#51=PLANE_ANGLE_MEASURE_WITH_UNIT(PLANE_ANGLE_MEASURE(0.017453292500000),#49);
#55=(CONVERSION_BASED_UNIT('DEGREE',#51)NAMED_UNIT(#50)PLANE_ANGLE_UNIT());
#59=(NAMED_UNIT(*)SI_UNIT($,.STERADIAN.)SOLID_ANGLE_UNIT());
#63=(LENGTH_UNIT()NAMED_UNIT(*)SI_UNIT(.MILLI.,.METRE.));
#65=UNCERTAINTY_MEASURE_WITH_UNIT(LENGTH_MEASURE(0.000001000000000),#63,'DISTANCE_ACCURACY_VALUE','');
#67=(GEOMETRIC_REPRESENTATION_CONTEXT(3)GLOBAL_UNCERTAINTY_ASSIGNED_CONTEXT((#65))GLOBAL_UNIT_ASSIGNED_CONTEXT((#55,#59,#63))REPRESENTATION_CONTEXT('','3D'));
#68=CARTESIAN_POINT('',(0.249999999999996,0.0,0.0));
#69=DIRECTION('',(1.0,0.0,0.0));
#70=DIRECTION('',(0.0,0.0,-1.0));
#71=AXIS2_PLACEMENT_3D('',#68,#69,#70);
#72=TOROIDAL_SURFACE('',#71,11.150000000000000,0.250000000000000);
#73=CARTESIAN_POINT('',(0.249999999999996,10.900000000000000,0.0));
#74=VERTEX_POINT('',#73);
#75=CARTESIAN_POINT('',(0.249999999999996,0.0,0.0));
#76=DIRECTION('',(1.0,0.0,0.0));
#77=DIRECTION('',(0.0,-1.0,0.0));
#78=AXIS2_PLACEMENT_3D('',#75,#76,#77);
#79=CIRCLE('',#78,10.900000000000000);
#80=EDGE_CURVE('',#74,#74,#79,.T.);
#81=ORIENTED_EDGE('',*,*,#80,.T.);
#82=EDGE_LOOP('',(#81));
#83=FACE_OUTER_BOUND('',#82,.T.);
#84=CARTESIAN_POINT('',(-3.608225E-015,11.150000000000000,-2.730872E-015));
#85=VERTEX_POINT('',#84);
#86=CARTESIAN_POINT('',(-3.608225E-015,0.0,0.0));
#87=DIRECTION('',(-1.0,0.0,0.0));
#88=DIRECTION('',(0.0,-1.0,0.0));
#89=AXIS2_PLACEMENT_3D('',#86,#87,#88);
#90=CIRCLE('',#89,11.150000000000000);
#91=EDGE_CURVE('',#85,#85,#90,.T.);
#92=ORIENTED_EDGE('',*,*,#91,.T.);
#93=EDGE_LOOP('',(#92));
#94=FACE_BOUND('',#93,.T.);
#95=ADVANCED_FACE('',(#83,#94),#72,.T.);
#96=CARTESIAN_POINT('',(0.749999999999997,0.0,0.0));
#97=DIRECTION('',(1.0,0.0,0.0));
#98=DIRECTION('',(0.0,1.0,0.0));
#99=AXIS2_PLACEMENT_3D('',#96,#97,#98);
#100=CYLINDRICAL_SURFACE('',#99,10.900000000000000);
#101=CARTESIAN_POINT('',(1.499999999999997,10.900000000000000,0.0));
#102=VERTEX_POINT('',#101);
#103=CARTESIAN_POINT('',(1.499999999999997,0.0,0.0));
#104=DIRECTION('',(1.0,0.0,0.0));
#105=DIRECTION('',(0.0,1.0,0.0));
#106=AXIS2_PLACEMENT_3D('',#103,#104,#105);
#107=CIRCLE('',#106,10.900000000000000);
#108=EDGE_CURVE('',#102,#102,#107,.T.);
#109=ORIENTED_EDGE('',*,*,#108,.T.);
#110=EDGE_LOOP('',(#109));
#111=FACE_OUTER_BOUND('',#110,.T.);
#112=ORIENTED_EDGE('',*,*,#80,.F.);
#113=EDGE_LOOP('',(#112));
#114=FACE_BOUND('',#113,.T.);
#115=ADVANCED_FACE('',(#111,#114),#100,.F.);
#116=CARTESIAN_POINT('',(-3.608225E-015,11.699999999999999,0.0));
#117=DIRECTION('',(-1.0,0.0,0.0));
#118=DIRECTION('',(0.0,0.0,1.0));
#119=AXIS2_PLACEMENT_3D('',#116,#117,#118);
#120=PLANE('',#119);
#121=CARTESIAN_POINT('',(-3.885781E-015,12.500000000000000,0.0));
#122=VERTEX_POINT('',#121);
#123=CARTESIAN_POINT('',(-3.885781E-015,0.0,0.0));
#124=DIRECTION('',(1.0,0.0,0.0));
#125=DIRECTION('',(0.0,1.0,0.0));
#126=AXIS2_PLACEMENT_3D('',#123,#124,#125);
#127=CIRCLE('',#126,12.500000000000000);
#128=EDGE_CURVE('',#122,#122,#127,.T.);
#129=ORIENTED_EDGE('',*,*,#128,.F.);
#130=EDGE_LOOP('',(#129));
#131=FACE_OUTER_BOUND('',#130,.T.);
#132=ORIENTED_EDGE('',*,*,#91,.F.);
#133=EDGE_LOOP('',(#132));
#134=FACE_BOUND('',#133,.T.);
#135=ADVANCED_FACE('',(#131,#134),#120,.T.);
#136=CARTESIAN_POINT('',(1.049999999999998,0.0,0.0));
#137=DIRECTION('',(1.0,0.0,0.0));
#138=DIRECTION('',(0.0,0.0,-1.0));
#139=AXIS2_PLACEMENT_3D('',#136,#137,#138);
#140=TOROIDAL_SURFACE('',#139,8.475184486022810,0.250000000000000);
#141=CARTESIAN_POINT('',(0.799999999999998,8.475184486022810,0.0));
#142=VERTEX_POINT('',#141);
#143=CARTESIAN_POINT('',(0.799999999999998,0.0,0.0));
#144=DIRECTION('',(1.0,0.0,0.0));
#145=DIRECTION('',(0.0,-1.0,0.0));
#146=AXIS2_PLACEMENT_3D('',#143,#144,#145);
#147=CIRCLE('',#146,8.475184486022810);
#148=EDGE_CURVE('',#142,#142,#147,.T.);
#149=ORIENTED_EDGE('',*,*,#148,.T.);
#150=EDGE_LOOP('',(#149));
#151=FACE_OUTER_BOUND('',#150,.T.);
#152=CARTESIAN_POINT('',(0.903053686926880,8.677438734616548,-2.125289E-015));
#153=VERTEX_POINT('',#152);
#154=CARTESIAN_POINT('',(0.903053686926880,0.0,-1.062645E-015));
#155=DIRECTION('',(-1.0,0.0,0.0));
#156=DIRECTION('',(0.0,-1.0,0.0));
#157=AXIS2_PLACEMENT_3D('',#154,#155,#156);
#158=CIRCLE('',#157,8.677438734616548);
#159=EDGE_CURVE('',#153,#153,#158,.T.);
#160=ORIENTED_EDGE('',*,*,#159,.T.);
#161=EDGE_LOOP('',(#160));
#162=FACE_BOUND('',#161,.T.);
#163=ADVANCED_FACE('',(#151,#162),#140,.T.);
#164=CARTESIAN_POINT('',(0.799999999999998,7.801282924198207,0.0));
#165=DIRECTION('',(-1.0,0.0,0.0));
#166=DIRECTION('',(0.0,0.0,1.0));
#167=AXIS2_PLACEMENT_3D('',#164,#165,#166);
#168=PLANE('',#167);
#169=ORIENTED_EDGE('',*,*,#148,.F.);
#170=EDGE_LOOP('',(#169));
#171=FACE_OUTER_BOUND('',#170,.T.);
#172=CARTESIAN_POINT('',(0.799999999999998,6.999999999999998,0.0));
#173=VERTEX_POINT('',#172);
#174=CARTESIAN_POINT('',(0.799999999999998,0.0,0.0));
#175=DIRECTION('',(1.0,0.0,0.0));
#176=DIRECTION('',(0.0,1.0,0.0));
#177=AXIS2_PLACEMENT_3D('',#174,#175,#176);
#178=CIRCLE('',#177,6.999999999999998);
#179=EDGE_CURVE('',#173,#173,#178,.T.);
#180=ORIENTED_EDGE('',*,*,#179,.T.);
#181=EDGE_LOOP('',(#180));
#182=FACE_BOUND('',#181,.T.);
#183=ADVANCED_FACE('',(#171,#182),#168,.T.);
#184=CARTESIAN_POINT('',(1.385114100916987,0.0,0.0));
#185=DIRECTION('',(1.0,0.0,0.0));
#186=DIRECTION('',(0.0,1.0,0.0));
#187=AXIS2_PLACEMENT_3D('',#184,#185,#186);
#188=CONICAL_SURFACE('',#187,9.027676126448229,36.0);
#189=CARTESIAN_POINT('',(1.970228201833975,9.452786404500042,0.0));
#190=VERTEX_POINT('',#189);
#191=CARTESIAN_POINT('',(1.970228201833975,0.0,0.0));
#192=DIRECTION('',(1.0,0.0,0.0));
#193=DIRECTION('',(0.0,1.0,0.0));
#194=AXIS2_PLACEMENT_3D('',#191,#192,#193);
#195=CIRCLE('',#194,9.452786404500042);
#196=EDGE_CURVE('',#190,#190,#195,.T.);
#197=ORIENTED_EDGE('',*,*,#196,.F.);
#198=EDGE_LOOP('',(#197));
#199=FACE_OUTER_BOUND('',#198,.T.);
#200=ORIENTED_EDGE('',*,*,#159,.F.);
#201=EDGE_LOOP('',(#200));
#202=FACE_BOUND('',#201,.T.);
#203=ADVANCED_FACE('',(#199,#202),#188,.T.);
#204=CARTESIAN_POINT('',(3.039833969432229,0.0,0.0));
#205=DIRECTION('',(1.0,0.0,0.0));
#206=DIRECTION('',(0.0,0.0,-1.0));
#207=AXIS2_PLACEMENT_3D('',#204,#205,#206);
#208=TOROIDAL_SURFACE('',#207,11.699999999999999,0.800000000000000);
#209=CARTESIAN_POINT('',(3.039833969432229,12.500000000000000,0.0));
#210=VERTEX_POINT('',#209);
#211=CARTESIAN_POINT('',(3.039833969432229,0.0,0.0));
#212=DIRECTION('',(1.0,0.0,0.0));
#213=DIRECTION('',(0.0,-1.0,0.0));
#214=AXIS2_PLACEMENT_3D('',#211,#212,#213);
#215=CIRCLE('',#214,12.500000000000000);
#216=EDGE_CURVE('',#210,#210,#215,.T.);
#217=ORIENTED_EDGE('',*,*,#216,.T.);
#218=EDGE_LOOP('',(#217));
#219=FACE_OUTER_BOUND('',#218,.T.);
#220=CARTESIAN_POINT('',(3.791588066060956,11.973616114660535,-2.932593E-015));
#221=VERTEX_POINT('',#220);
#222=CARTESIAN_POINT('',(3.791588066060956,0.0,-1.466297E-015));
#223=DIRECTION('',(-1.0,0.0,0.0));
#224=DIRECTION('',(0.0,-1.0,0.0));
#225=AXIS2_PLACEMENT_3D('',#222,#223,#224);
#226=CIRCLE('',#225,11.973616114660535);
#227=EDGE_CURVE('',#221,#221,#226,.T.);
#228=ORIENTED_EDGE('',*,*,#227,.T.);
#229=EDGE_LOOP('',(#228));
#230=FACE_BOUND('',#229,.T.);
#231=ADVANCED_FACE('',(#219,#230),#208,.T.);
#232=CARTESIAN_POINT('',(4.309741956819091,0.0,0.0));
#233=DIRECTION('',(-1.0,0.0,0.0));
#234=DIRECTION('',(0.0,1.0,0.0));
#235=AXIS2_PLACEMENT_3D('',#232,#233,#234);
#236=CONICAL_SURFACE('',#235,10.549999999999999,70.000000000000014);
#237=CARTESIAN_POINT('',(4.540513748485789,9.915959713348663,7.395571E-031));
#238=VERTEX_POINT('',#237);
#239=CARTESIAN_POINT('',(4.540513748485789,0.0,-1.214315E-015));
#240=DIRECTION('',(1.0,0.0,0.0));
#241=DIRECTION('',(0.0,-1.0,0.0));
#242=AXIS2_PLACEMENT_3D('',#239,#240,#241);
#243=CIRCLE('',#242,9.915959713348663);
#244=EDGE_CURVE('',#238,#238,#243,.T.);
#245=ORIENTED_EDGE('',*,*,#244,.F.);
#246=EDGE_LOOP('',(#245));
#247=FACE_OUTER_BOUND('',#246,.T.);
#248=ORIENTED_EDGE('',*,*,#227,.F.);
#249=EDGE_LOOP('',(#248));
#250=FACE_BOUND('',#249,.T.);
#251=ADVANCED_FACE('',(#247,#250),#236,.T.);
#252=CARTESIAN_POINT('',(1.799999999999996,0.0,0.0));
#253=DIRECTION('',(1.0,0.0,0.0));
#254=DIRECTION('',(0.0,1.0,0.0));
#255=AXIS2_PLACEMENT_3D('',#252,#253,#254);
#256=CYLINDRICAL_SURFACE('',#255,12.500000000000000);
#257=ORIENTED_EDGE('',*,*,#128,.T.);
#258=EDGE_LOOP('',(#257));
#259=FACE_OUTER_BOUND('',#258,.T.);
#260=ORIENTED_EDGE('',*,*,#216,.F.);
#261=EDGE_LOOP('',(#260));
#262=FACE_BOUND('',#261,.T.);
#263=ADVANCED_FACE('',(#259,#262),#256,.T.);
#264=CARTESIAN_POINT('',(6.419898990057606,-1.053161E-015,8.600000000000001));
#265=CARTESIAN_POINT('',(4.419898990057606,-1.053161E-015,8.600000000000001));
#266=CARTESIAN_POINT('',(4.419898990057606,-1.298083E-015,10.600000000000001));
#267=CARTESIAN_POINT('',(4.419898990057606,-1.543004E-015,12.600000000000001));
#268=CARTESIAN_POINT('',(6.419898990057606,-1.543004E-015,12.600000000000001));
#269=CARTESIAN_POINT('',(6.419898990057606,-8.600000000000001,8.599999999999998));
#270=CARTESIAN_POINT('',(4.419898990057606,-8.600000000000001,8.599999999999998));
#271=CARTESIAN_POINT('',(4.419898990057606,-10.600000000000001,10.599999999999998));
#272=CARTESIAN_POINT('',(4.419898990057606,-12.600000000000000,12.599999999999996));
#273=CARTESIAN_POINT('',(6.419898990057606,-12.600000000000000,12.599999999999996));
#274=CARTESIAN_POINT('',(6.419898990057606,-8.600000000000001,-1.053161E-015));
#275=CARTESIAN_POINT('',(4.419898990057606,-8.600000000000001,-1.053161E-015));
#276=CARTESIAN_POINT('',(4.419898990057606,-10.600000000000001,-1.298083E-015));
#277=CARTESIAN_POINT('',(4.419898990057606,-12.600000000000001,-1.543004E-015));
#278=CARTESIAN_POINT('',(6.419898990057606,-12.600000000000001,-1.543004E-015));
#279=CARTESIAN_POINT('',(6.419898990057606,-8.599999999999998,-8.600000000000001));
#280=CARTESIAN_POINT('',(4.419898990057606,-8.599999999999998,-8.600000000000001));
#281=CARTESIAN_POINT('',(4.419898990057606,-10.599999999999998,-10.600000000000001));
#282=CARTESIAN_POINT('',(4.419898990057606,-12.599999999999996,-12.600000000000000));
#283=CARTESIAN_POINT('',(6.419898990057606,-12.599999999999996,-12.600000000000000));
#284=CARTESIAN_POINT('',(6.419898990057606,1.053161E-015,-8.600000000000001));
#285=CARTESIAN_POINT('',(4.419898990057606,1.053161E-015,-8.600000000000001));
#286=CARTESIAN_POINT('',(4.419898990057606,1.298083E-015,-10.600000000000001));
#287=CARTESIAN_POINT('',(4.419898990057606,1.543004E-015,-12.600000000000001));
#288=CARTESIAN_POINT('',(6.419898990057606,1.543004E-015,-12.600000000000001));
#289=CARTESIAN_POINT('',(6.419898990057606,8.600000000000001,-8.599999999999998));
#290=CARTESIAN_POINT('',(4.419898990057606,8.600000000000001,-8.599999999999998));
#291=CARTESIAN_POINT('',(4.419898990057606,10.600000000000001,-10.599999999999998));
#292=CARTESIAN_POINT('',(4.419898990057606,12.600000000000000,-12.599999999999996));
#293=CARTESIAN_POINT('',(6.419898990057606,12.600000000000000,-12.599999999999996));
#294=CARTESIAN_POINT('',(6.419898990057606,8.600000000000001,1.053161E-015));
#295=CARTESIAN_POINT('',(4.419898990057606,8.600000000000001,1.053161E-015));
#296=CARTESIAN_POINT('',(4.419898990057606,10.600000000000001,1.298083E-015));
#297=CARTESIAN_POINT('',(4.419898990057606,12.600000000000001,1.543004E-015));
#298=CARTESIAN_POINT('',(6.419898990057606,12.600000000000001,1.543004E-015));
#299=CARTESIAN_POINT('',(6.419898990057606,8.599999999999998,8.600000000000001));
#300=CARTESIAN_POINT('',(4.419898990057606,8.599999999999998,8.600000000000001));
#301=CARTESIAN_POINT('',(4.419898990057606,10.599999999999998,10.600000000000001));
#302=CARTESIAN_POINT('',(4.419898990057606,12.599999999999996,12.600000000000000));
#303=CARTESIAN_POINT('',(6.419898990057606,12.599999999999996,12.600000000000000));
#304=CARTESIAN_POINT('',(6.419898990057606,-1.053161E-015,8.600000000000001));
#305=CARTESIAN_POINT('',(4.419898990057606,-1.053161E-015,8.600000000000001));
#306=CARTESIAN_POINT('',(4.419898990057606,-1.298083E-015,10.600000000000001));
#307=CARTESIAN_POINT('',(4.419898990057606,-1.543004E-015,12.600000000000001));
#308=CARTESIAN_POINT('',(6.419898990057606,-1.543004E-015,12.600000000000001));
#316=(BOUNDED_SURFACE()B_SPLINE_SURFACE(2,2,((#264,#269,#274,#279,#284,#289,#294,#299,#304),(#265,#270,#275,#280,#285,#290,#295,#300,#305),(#266,#271,#276,#281,#286,#291,#296,#301,#306),(#267,#272,#277,#282,#287,#292,#297,#302,#307),(#268,#273,#278,#283,#288,#293,#298,#303,#308)),.UNSPECIFIED.,.F.,.T.,.U.)B_SPLINE_SURFACE_WITH_KNOTS((3,2,3),(3,2,2,2,3),(-3.141592653589793,-1.570796326794897,0.0),(0.0,1.570796326794897,3.141592653589793,4.712388980384690,6.283185307179586),.UNSPECIFIED.)GEOMETRIC_REPRESENTATION_ITEM()RATIONAL_B_SPLINE_SURFACE(((1.0,0.707106781186548,1.0,0.707106781186548,1.0,0.707106781186548,1.0,0.707106781186548,1.0),(0.707106781186548,0.500000000000001,0.707106781186548,0.500000000000001,0.707106781186548,0.500000000000001,0.707106781186548,0.500000000000001,0.707106781186548),(1.0,0.707106781186548,1.0,0.707106781186548,1.0,0.707106781186548,1.0,0.707106781186548,1.0),(0.707106781186548,0.500000000000001,0.707106781186548,0.500000000000001,0.707106781186548,0.500000000000001,0.707106781186548,0.500000000000001,0.707106781186548),(1.0,0.707106781186548,1.0,0.707106781186548,1.0,0.707106781186548,1.0,0.707106781186548,1.0)))REPRESENTATION_ITEM('')SURFACE());
#317=ORIENTED_EDGE('',*,*,#244,.T.);
#318=EDGE_LOOP('',(#317));
#319=FACE_OUTER_BOUND('',#318,.T.);
#320=CARTESIAN_POINT('',(6.419898990057606,8.600000000000000,-2.106323E-015));
#321=VERTEX_POINT('',#320);
#322=CARTESIAN_POINT('',(6.419898990057606,0.0,0.0));
#323=DIRECTION('',(-1.0,0.0,0.0));
#324=DIRECTION('',(0.0,-1.0,0.0));
#325=AXIS2_PLACEMENT_3D('',#322,#323,#324);
#326=CIRCLE('',#325,8.600000000000000);
#327=EDGE_CURVE('',#321,#321,#326,.T.);
#328=ORIENTED_EDGE('',*,*,#327,.T.);
#329=EDGE_LOOP('',(#328));
#330=FACE_BOUND('',#329,.T.);
#331=ADVANCED_FACE('',(#319,#330),#316,.T.);
#332=CARTESIAN_POINT('',(8.859741956819091,0.0,0.0));
#333=DIRECTION('',(1.0,0.0,0.0));
#334=DIRECTION('',(0.0,1.0,0.0));
#335=AXIS2_PLACEMENT_3D('',#332,#333,#334);
#336=CYLINDRICAL_SURFACE('',#335,8.600000000000000);
#337=CARTESIAN_POINT('',(12.699999999999996,8.600000000000000,0.0));
#338=VERTEX_POINT('',#337);
#339=CARTESIAN_POINT('',(12.699999999999996,0.0,0.0));
#340=DIRECTION('',(1.0,0.0,0.0));
#341=DIRECTION('',(0.0,1.0,0.0));
#342=AXIS2_PLACEMENT_3D('',#339,#340,#341);
#343=CIRCLE('',#342,8.600000000000000);
#344=EDGE_CURVE('',#338,#338,#343,.T.);
#345=ORIENTED_EDGE('',*,*,#344,.F.);
#346=EDGE_LOOP('',(#345));
#347=FACE_OUTER_BOUND('',#346,.T.);
#348=ORIENTED_EDGE('',*,*,#327,.F.);
#349=EDGE_LOOP('',(#348));
#350=FACE_BOUND('',#349,.T.);
#351=ADVANCED_FACE('',(#347,#350),#336,.T.);
#352=CARTESIAN_POINT('',(12.699999999999996,7.800000000000001,0.0));
#353=DIRECTION('',(1.0,0.0,0.0));
#354=DIRECTION('',(0.0,0.0,-1.0));
#355=AXIS2_PLACEMENT_3D('',#352,#353,#354);
#356=PLANE('',#355);
#357=ORIENTED_EDGE('',*,*,#344,.T.);
#358=EDGE_LOOP('',(#357));
#359=FACE_OUTER_BOUND('',#358,.T.);
#360=CARTESIAN_POINT('',(12.699999999999996,7.000000000000002,0.0));
#361=VERTEX_POINT('',#360);
#362=CARTESIAN_POINT('',(12.699999999999996,0.0,0.0));
#363=DIRECTION('',(1.0,0.0,0.0));
#364=DIRECTION('',(0.0,1.0,0.0));
#365=AXIS2_PLACEMENT_3D('',#362,#363,#364);
#366=CIRCLE('',#365,7.000000000000002);
#367=EDGE_CURVE('',#361,#361,#366,.T.);
#368=ORIENTED_EDGE('',*,*,#367,.F.);
#369=EDGE_LOOP('',(#368));
#370=FACE_BOUND('',#369,.T.);
#371=ADVANCED_FACE('',(#359,#370),#356,.T.);
#372=CARTESIAN_POINT('',(6.749999999999997,0.0,0.0));
#373=DIRECTION('',(1.0,0.0,0.0));
#374=DIRECTION('',(0.0,1.0,0.0));
#375=AXIS2_PLACEMENT_3D('',#372,#373,#374);
#376=CYLINDRICAL_SURFACE('',#375,7.0);
#377=ORIENTED_EDGE('',*,*,#179,.F.);
#378=EDGE_LOOP('',(#377));
#379=FACE_OUTER_BOUND('',#378,.T.);
#380=ORIENTED_EDGE('',*,*,#367,.T.);
#381=EDGE_LOOP('',(#380));
#382=FACE_BOUND('',#381,.T.);
#383=ADVANCED_FACE('',(#379,#382),#376,.F.);
#384=CARTESIAN_POINT('',(1.499999999999997,-1.334821E-015,10.900000000000000));
#385=CARTESIAN_POINT('',(2.299999999999998,-1.334821E-015,10.900000000000000));
#386=CARTESIAN_POINT('',(2.299999999999998,-1.236852E-015,10.100000000000000));
#387=CARTESIAN_POINT('',(2.299999999999998,-1.138884E-015,9.299999999999999));
#388=CARTESIAN_POINT('',(1.499999999999997,-1.138884E-015,9.299999999999999));
#389=CARTESIAN_POINT('',(1.499999999999997,-10.900000000000000,10.899999999999997));
#390=CARTESIAN_POINT('',(2.299999999999998,-10.900000000000000,10.899999999999997));
#391=CARTESIAN_POINT('',(2.299999999999998,-10.100000000000000,10.099999999999996));
#392=CARTESIAN_POINT('',(2.299999999999998,-9.299999999999999,9.299999999999995));
#393=CARTESIAN_POINT('',(1.499999999999997,-9.299999999999999,9.299999999999995));
#394=CARTESIAN_POINT('',(1.499999999999997,-10.900000000000000,-1.334821E-015));
#395=CARTESIAN_POINT('',(2.299999999999998,-10.900000000000000,-1.334821E-015));
#396=CARTESIAN_POINT('',(2.299999999999998,-10.100000000000000,-1.236852E-015));
#397=CARTESIAN_POINT('',(2.299999999999998,-9.299999999999999,-1.138884E-015));
#398=CARTESIAN_POINT('',(1.499999999999997,-9.299999999999999,-1.138884E-015));
#399=CARTESIAN_POINT('',(1.499999999999997,-10.899999999999997,-10.900000000000000));
#400=CARTESIAN_POINT('',(2.299999999999998,-10.899999999999997,-10.900000000000000));
#401=CARTESIAN_POINT('',(2.299999999999998,-10.099999999999996,-10.100000000000000));
#402=CARTESIAN_POINT('',(2.299999999999998,-9.299999999999995,-9.299999999999999));
#403=CARTESIAN_POINT('',(1.499999999999997,-9.299999999999995,-9.299999999999999));
#404=CARTESIAN_POINT('',(1.499999999999997,1.334821E-015,-10.900000000000000));
#405=CARTESIAN_POINT('',(2.299999999999998,1.334821E-015,-10.900000000000000));
#406=CARTESIAN_POINT('',(2.299999999999998,1.236852E-015,-10.100000000000000));
#407=CARTESIAN_POINT('',(2.299999999999998,1.138884E-015,-9.299999999999999));
#408=CARTESIAN_POINT('',(1.499999999999997,1.138884E-015,-9.299999999999999));
#409=CARTESIAN_POINT('',(1.499999999999997,10.900000000000000,-10.899999999999997));
#410=CARTESIAN_POINT('',(2.299999999999998,10.900000000000000,-10.899999999999997));
#411=CARTESIAN_POINT('',(2.299999999999998,10.100000000000000,-10.099999999999996));
#412=CARTESIAN_POINT('',(2.299999999999998,9.299999999999999,-9.299999999999995));
#413=CARTESIAN_POINT('',(1.499999999999997,9.299999999999999,-9.299999999999995));
#414=CARTESIAN_POINT('',(1.499999999999997,10.900000000000000,1.334821E-015));
#415=CARTESIAN_POINT('',(2.299999999999998,10.900000000000000,1.334821E-015));
#416=CARTESIAN_POINT('',(2.299999999999998,10.100000000000000,1.236852E-015));
#417=CARTESIAN_POINT('',(2.299999999999998,9.299999999999999,1.138884E-015));
#418=CARTESIAN_POINT('',(1.499999999999997,9.299999999999999,1.138884E-015));
#419=CARTESIAN_POINT('',(1.499999999999997,10.899999999999997,10.900000000000000));
#420=CARTESIAN_POINT('',(2.299999999999998,10.899999999999997,10.900000000000000));
#421=CARTESIAN_POINT('',(2.299999999999998,10.099999999999996,10.100000000000000));
#422=CARTESIAN_POINT('',(2.299999999999998,9.299999999999995,9.299999999999999));
#423=CARTESIAN_POINT('',(1.499999999999997,9.299999999999995,9.299999999999999));
#424=CARTESIAN_POINT('',(1.499999999999997,-1.334821E-015,10.900000000000000));
#425=CARTESIAN_POINT('',(2.299999999999998,-1.334821E-015,10.900000000000000));
#426=CARTESIAN_POINT('',(2.299999999999998,-1.236852E-015,10.100000000000000));
#427=CARTESIAN_POINT('',(2.299999999999998,-1.138884E-015,9.299999999999999));
#428=CARTESIAN_POINT('',(1.499999999999997,-1.138884E-015,9.299999999999999));
#436=(BOUNDED_SURFACE()B_SPLINE_SURFACE(2,2,((#384,#389,#394,#399,#404,#409,#414,#419,#424),(#385,#390,#395,#400,#405,#410,#415,#420,#425),(#386,#391,#396,#401,#406,#411,#416,#421,#426),(#387,#392,#397,#402,#407,#412,#417,#422,#427),(#388,#393,#398,#403,#408,#413,#418,#423,#428)),.UNSPECIFIED.,.F.,.T.,.U.)B_SPLINE_SURFACE_WITH_KNOTS((3,2,3),(3,2,2,2,3),(0.0,1.570796326794897,3.141592653589793),(0.0,1.570796326794897,3.141592653589793,4.712388980384690,6.283185307179586),.UNSPECIFIED.)GEOMETRIC_REPRESENTATION_ITEM()RATIONAL_B_SPLINE_SURFACE(((1.0,0.707106781186548,1.0,0.707106781186548,1.0,0.707106781186548,1.0,0.707106781186548,1.0),(0.707106781186547,0.500000000000000,0.707106781186547,0.500000000000000,0.707106781186547,0.500000000000000,0.707106781186547,0.500000000000000,0.707106781186547),(1.0,0.707106781186548,1.0,0.707106781186548,1.0,0.707106781186548,1.0,0.707106781186548,1.0),(0.707106781186549,0.500000000000001,0.707106781186549,0.500000000000001,0.707106781186549,0.500000000000001,0.707106781186549,0.500000000000001,0.707106781186549),(1.0,0.707106781186548,1.0,0.707106781186548,1.0,0.707106781186548,1.0,0.707106781186548,1.0)))REPRESENTATION_ITEM('')SURFACE());
#437=ORIENTED_EDGE('',*,*,#108,.F.);
#438=EDGE_LOOP('',(#437));
#439=FACE_OUTER_BOUND('',#438,.T.);
#440=ORIENTED_EDGE('',*,*,#196,.T.);
#441=EDGE_LOOP('',(#440));
#442=FACE_BOUND('',#441,.T.);
#443=ADVANCED_FACE('',(#439,#442),#436,.T.);
#444=CLOSED_SHELL('',(#95,#115,#135,#163,#183,#203,#231,#251,#263,#331,#351,#371,#383,#443));
#445=MANIFOLD_SOLID_BREP('Volumenk\S\vrper1',#444);
#446=COLOUR_RGB('Standard',0.752941012382507,0.752941012382507,0.752941012382507);
#447=FILL_AREA_STYLE_COLOUR('Standard',#446);
#448=FILL_AREA_STYLE('Standard',(#447));
#449=SURFACE_STYLE_FILL_AREA(#448);
#450=SURFACE_SIDE_STYLE('Standard',(#449));
#451=SURFACE_STYLE_USAGE(.BOTH.,#450);
#452=PRESENTATION_STYLE_ASSIGNMENT((#451));
#453=STYLED_ITEM('',(#452),#445);
#454=MECHANICAL_DESIGN_GEOMETRIC_PRESENTATION_REPRESENTATION('',(#453),#36);
#455=ADVANCED_BREP_SHAPE_REPRESENTATION('ABSR',(#445),#36);
#456=SHAPE_REPRESENTATION_RELATIONSHIP('SRR','None',#455,#41);
ENDSEC;
END-ISO-10303-21;
