ISO-10303-21;
HEADER;
/****************************************************************
 * Generated by software with PDE/Lib inside                    *
 * PDElib Version 3.2.7, created Wed Aug 14, 2002 at 18:42:09   *
 * International Technegroup Inc. (www.iti-oh.com)              *
 ****************************************************************/
FILE_DESCRIPTION((''),'2;1');
FILE_NAME(
   '/win/techdoc/step/Anette/TD112046_Reducer_Con_ISO_51_25.stp',
   '2005-03-09T12:01:22',('User'),('SDRC'),'I-DEAS Master Series 9','UNIX',
   'Yes');
FILE_SCHEMA(('CONFIG_CONTROL_DESIGN'));
ENDSEC;
DATA;
#10=(NAMED_UNIT(*)PLANE_ANGLE_UNIT()SI_UNIT($,.RADIAN.));
#11=DIMENSIONAL_EXPONENTS(0.0,0.0,0.0,0.0,0.0,0.0,0.0);
#12=PLANE_ANGLE_MEASURE_WITH_UNIT(PLANE_ANGLE_MEASURE(
   0.017453292500000),#10);
#16=(CONVERSION_BASED_UNIT('DEGREE',#12)NAMED_UNIT(#11)
   PLANE_ANGLE_UNIT());
#20=(NAMED_UNIT(*)SI_UNIT($,.STERADIAN.)SOLID_ANGLE_UNIT());
#24=(LENGTH_UNIT()NAMED_UNIT(*)SI_UNIT(.MILLI.,.METRE.));
#26=UNCERTAINTY_MEASURE_WITH_UNIT(LENGTH_MEASURE(
   0.010000000000000),#24,'DISTANCE_ACCURACY_VALUE','');
#28=(GEOMETRIC_REPRESENTATION_CONTEXT(3)
   GLOBAL_UNCERTAINTY_ASSIGNED_CONTEXT((#26))
   GLOBAL_UNIT_ASSIGNED_CONTEXT((#16,#20,#24))
   REPRESENTATION_CONTEXT('','3D'));
#29=APPLICATION_CONTEXT(
   'configuration controlled 3D designs of mechanical parts and assemblies'
);
#30=APPLICATION_PROTOCOL_DEFINITION('International Standard',
   'ccd_cla_gvp_ast_asd',1995,#29);
#31=MECHANICAL_CONTEXT('None',#29,'mechanical');
#32=PRODUCT('TD112046','Reducer_Con_ISO_51_25','None',(#31));
#33=PRODUCT_RELATED_PRODUCT_CATEGORY('detail',$,(#32));
#34=PRODUCT_CATEGORY('part',$);
#35=PRODUCT_CATEGORY_RELATIONSHIP('None','None',#34,#33);
#36=PERSON('00008','None','None',$,$,$);
#37=ORGANIZATION('','None','None');
#38=PERSON_AND_ORGANIZATION(#36,#37);
#39=PERSON_AND_ORGANIZATION_ROLE('design_owner');
#40=CC_DESIGN_PERSON_AND_ORGANIZATION_ASSIGNMENT(#38,#39,(#32));
#41=PRODUCT_DEFINITION_FORMATION_WITH_SPECIFIED_SOURCE('','None',#32,
   .BOUGHT.);
#42=PERSON('00003','None','None',$,$,$);
#43=ORGANIZATION('','None','None');
#44=PERSON_AND_ORGANIZATION(#42,#43);
#45=PERSON_AND_ORGANIZATION_ROLE('creator');
#46=CC_DESIGN_PERSON_AND_ORGANIZATION_ASSIGNMENT(#44,#45,(#41));
#47=PERSON('00004','None','None',$,$,$);
#48=ORGANIZATION('','None','None');
#49=PERSON_AND_ORGANIZATION(#47,#48);
#50=PERSON_AND_ORGANIZATION_ROLE('part_supplier');
#51=CC_DESIGN_PERSON_AND_ORGANIZATION_ASSIGNMENT(#49,#50,(#41));
#52=APPROVAL_STATUS('approved');
#53=APPROVAL(#52,'None');
#54=PERSON('00005','None','None',$,$,$);
#55=ORGANIZATION('','None','None');
#56=PERSON_AND_ORGANIZATION(#54,#55);
#57=APPROVAL_ROLE('None');
#58=APPROVAL_PERSON_ORGANIZATION(#56,#53,#57);
#59=CALENDAR_DATE(2005,9,3);
#60=COORDINATED_UNIVERSAL_TIME_OFFSET(0,0,.AHEAD.);
#61=LOCAL_TIME(12,1,22.0,#60);
#62=DATE_AND_TIME(#59,#61);
#63=APPROVAL_DATE_TIME(#62,#53);
#64=CC_DESIGN_APPROVAL(#53,(#41));
#65=SECURITY_CLASSIFICATION_LEVEL('unclassified');
#66=SECURITY_CLASSIFICATION('None','None',#65);
#67=CC_DESIGN_SECURITY_CLASSIFICATION(#66,(#41));
#68=APPROVAL_STATUS('approved');
#69=APPROVAL(#68,'None');
#70=PERSON('00006','None','None',$,$,$);
#71=ORGANIZATION('','None','None');
#72=PERSON_AND_ORGANIZATION(#70,#71);
#73=APPROVAL_ROLE('None');
#74=APPROVAL_PERSON_ORGANIZATION(#72,#69,#73);
#75=CALENDAR_DATE(2005,9,3);
#76=COORDINATED_UNIVERSAL_TIME_OFFSET(0,0,.AHEAD.);
#77=LOCAL_TIME(12,1,22.0,#76);
#78=DATE_AND_TIME(#75,#77);
#79=APPROVAL_DATE_TIME(#78,#69);
#80=CC_DESIGN_APPROVAL(#69,(#66));
#81=PERSON('00007','None','None',$,$,$);
#82=ORGANIZATION('','None','None');
#83=PERSON_AND_ORGANIZATION(#81,#82);
#84=PERSON_AND_ORGANIZATION_ROLE('classification_officer');
#85=CC_DESIGN_PERSON_AND_ORGANIZATION_ASSIGNMENT(#83,#84,(#66));
#86=DATE_TIME_ROLE('classification_date');
#87=CALENDAR_DATE(2005,9,3);
#88=COORDINATED_UNIVERSAL_TIME_OFFSET(0,0,.AHEAD.);
#89=LOCAL_TIME(12,1,22.0,#88);
#90=DATE_AND_TIME(#87,#89);
#91=CC_DESIGN_DATE_AND_TIME_ASSIGNMENT(#90,#86,(#66));
#92=DESIGN_CONTEXT('part definition',#29,'design');
#93=DOCUMENT_TYPE('cad_filename');
#94=DOCUMENT('None','Main:Reducer_Con_ISO_51_25:TD112046::0','None',#93
   );
#95=PRODUCT_DEFINITION_WITH_ASSOCIATED_DOCUMENTS('None','None',#41,#92,
   (#94));
#96=PERSON('00001','None','None',$,$,$);
#97=ORGANIZATION('','None','None');
#98=PERSON_AND_ORGANIZATION(#96,#97);
#99=PERSON_AND_ORGANIZATION_ROLE('creator');
#100=CC_DESIGN_PERSON_AND_ORGANIZATION_ASSIGNMENT(#98,#99,(#95));
#101=DATE_TIME_ROLE('creation_date');
#102=CALENDAR_DATE(2005,9,3);
#103=COORDINATED_UNIVERSAL_TIME_OFFSET(0,0,.AHEAD.);
#104=LOCAL_TIME(12,1,22.0,#103);
#105=DATE_AND_TIME(#102,#104);
#106=CC_DESIGN_DATE_AND_TIME_ASSIGNMENT(#105,#101,(#95));
#107=APPROVAL_STATUS('approved');
#108=APPROVAL(#107,'None');
#109=PERSON('00002','None','None',$,$,$);
#110=ORGANIZATION('','None','None');
#111=PERSON_AND_ORGANIZATION(#109,#110);
#112=APPROVAL_ROLE('None');
#113=APPROVAL_PERSON_ORGANIZATION(#111,#108,#112);
#114=CALENDAR_DATE(2005,9,3);
#115=COORDINATED_UNIVERSAL_TIME_OFFSET(0,0,.AHEAD.);
#116=LOCAL_TIME(12,1,22.0,#115);
#117=DATE_AND_TIME(#114,#116);
#118=APPROVAL_DATE_TIME(#117,#108);
#119=CC_DESIGN_APPROVAL(#108,(#95));
#120=PRODUCT_DEFINITION_SHAPE('None','None',#95);
#121=ADVANCED_BREP_SHAPE_REPRESENTATION('',(#211),#28);
#122=SHAPE_DEFINITION_REPRESENTATION(#120,#121);
#123=CARTESIAN_POINT('F1',(-1.387779E-14,-28.049999999999997,
   28.049999999999997));
#124=CARTESIAN_POINT('F1',(-1.387779E-14,28.049999999999997,
   28.049999999999997));
#125=CARTESIAN_POINT('F1',(-1.387779E-14,-28.049999999999997,
   -28.049999999999997));
#126=CARTESIAN_POINT('F1',(-1.387779E-14,28.049999999999997,
   -28.049999999999997));
#127=QUASI_UNIFORM_SURFACE('F1',1,1,((#123,#125),(#124,#126)),
   .PLANE_SURF.,.F.,.F.,.U.);
#128=CARTESIAN_POINT('V2',(0.0,-25.500000000000000,3.469447E-15));
#129=VERTEX_POINT('V2',#128);
#130=CARTESIAN_POINT('E5',(0.0,-25.500000000000000,3.469447E-15));
#131=CARTESIAN_POINT('E5',(0.0,-25.500000000000000,
   44.167295593006003));
#132=CARTESIAN_POINT('E5',(0.0,12.750000000000000,22.083647796503001)
   );
#133=CARTESIAN_POINT('E5',(0.0,51.0,-2.081668E-14));
#134=CARTESIAN_POINT('E5',(0.0,12.750000000000000,
   -22.083647796503001));
#135=CARTESIAN_POINT('E5',(0.0,-25.500000000000000,
   -44.167295593006003));
#136=CARTESIAN_POINT('E5',(0.0,-25.500000000000000,3.469447E-15));
#144=(BOUNDED_CURVE()B_SPLINE_CURVE(2,(#130,#131,#132,#133,#134,
   #135,#136),.CIRCULAR_ARC.,.T.,.U.)B_SPLINE_CURVE_WITH_KNOTS((3,
   2,2,3),(0.0,0.333333333333330,0.666666666666670,1.0),
   .UNSPECIFIED.)CURVE()GEOMETRIC_REPRESENTATION_ITEM()
   RATIONAL_B_SPLINE_CURVE((1.0,0.500000000000000,1.0,
   0.500000000000000,1.0,0.500000000000000,1.0))REPRESENTATION_ITEM(
   'E5'));
#145=EDGE_CURVE('E5',#129,#129,#144,.T.);
#146=ORIENTED_EDGE('E5',*,*,#145,.T.);
#147=EDGE_LOOP('F1',(#146));
#148=FACE_OUTER_BOUND('F1',#147,.T.);
#149=ADVANCED_FACE('F1',(#148),#127,.T.);
#150=CARTESIAN_POINT('F2',(0.0,-25.500000000000000,3.469447E-15));
#151=CARTESIAN_POINT('F2',(-1.387779E-14,-25.500000000000000,
   -44.167295593006003));
#152=CARTESIAN_POINT('F2',(0.0,12.750000000000000,
   -22.083647796503001));
#153=CARTESIAN_POINT('F2',(0.0,51.0,-2.081668E-14));
#154=CARTESIAN_POINT('F2',(0.0,12.750000000000000,22.083647796503001)
   );
#155=CARTESIAN_POINT('F2',(-1.387779E-14,-25.500000000000000,
   44.167295593006003));
#156=CARTESIAN_POINT('F2',(0.0,-25.500000000000000,3.469447E-15));
#157=CARTESIAN_POINT('F2',(86.0,-12.500000000000000,3.469447E-15));
#158=CARTESIAN_POINT('F2',(86.0,-12.500000000000000,
   -21.650635094609999));
#159=CARTESIAN_POINT('F2',(86.0,6.249999999999900,
   -10.825317547305000));
#160=CARTESIAN_POINT('F2',(86.0,25.0,-8.435518E-15));
#161=CARTESIAN_POINT('F2',(86.0,6.250000000000000,10.825317547305000)
   );
#162=CARTESIAN_POINT('F2',(86.0,-12.500000000000000,
   21.650635094609999));
#163=CARTESIAN_POINT('F2',(86.0,-12.500000000000000,3.469447E-15));
#171=(BOUNDED_SURFACE()B_SPLINE_SURFACE(2,1,((#150,#157),(#151,
   #158),(#152,#159),(#153,#160),(#154,#161),(#155,#162),(
   #156,#163)),.CONICAL_SURF.,.T.,.F.,.U.)
   B_SPLINE_SURFACE_WITH_KNOTS((3,2,2,3),(2,2),(0.0,
   0.333333333333330,0.666666666666670,1.0),(0.0,1.0),.UNSPECIFIED.
   )GEOMETRIC_REPRESENTATION_ITEM()RATIONAL_B_SPLINE_SURFACE(((
   1.0,1.0),(0.500000000000000,0.500000000000000),(1.0,1.0),(
   0.500000000000000,0.500000000000000),(1.0,1.0),(
   0.500000000000000,0.500000000000000),(1.0,1.0)))
   REPRESENTATION_ITEM('F2')SURFACE());
#172=CARTESIAN_POINT('V3',(86.0,-12.500000000000000,3.469447E-15));
#173=VERTEX_POINT('V3',#172);
#174=CARTESIAN_POINT('E2',(86.0,-12.500000000000000,0.0));
#175=CARTESIAN_POINT('E2',(0.0,-25.500000000000000,0.0));
#176=QUASI_UNIFORM_CURVE('E2',1,(#174,#175),.POLYLINE_FORM.,.F.,.U.
   );
#177=EDGE_CURVE('E2',#173,#129,#176,.T.);
#178=ORIENTED_EDGE('E2',*,*,#177,.T.);
#179=ORIENTED_EDGE('F1',*,*,#145,.F.);
#180=ORIENTED_EDGE('E2',*,*,#177,.F.);
#181=CARTESIAN_POINT('E6',(86.0,-12.500000000000000,3.469447E-15));
#182=CARTESIAN_POINT('E6',(86.0,-12.500000000000000,
   21.650635094611001));
#183=CARTESIAN_POINT('E6',(86.0,6.250000000000000,10.825317547305000)
   );
#184=CARTESIAN_POINT('E6',(86.0,25.0,-8.435518E-15));
#185=CARTESIAN_POINT('E6',(86.0,6.249999999999900,
   -10.825317547305000));
#186=CARTESIAN_POINT('E6',(86.0,-12.500000000000000,
   -21.650635094611001));
#187=CARTESIAN_POINT('E6',(86.0,-12.500000000000000,3.469447E-15));
#195=(BOUNDED_CURVE()B_SPLINE_CURVE(2,(#181,#182,#183,#184,#185,
   #186,#187),.CIRCULAR_ARC.,.T.,.U.)B_SPLINE_CURVE_WITH_KNOTS((3,
   2,2,3),(0.0,0.333333333333330,0.666666666666670,1.0),
   .UNSPECIFIED.)CURVE()GEOMETRIC_REPRESENTATION_ITEM()
   RATIONAL_B_SPLINE_CURVE((1.0,0.500000000000000,1.0,
   0.500000000000000,1.0,0.500000000000000,1.0))REPRESENTATION_ITEM(
   'E6'));
#196=EDGE_CURVE('E6',#173,#173,#195,.T.);
#197=ORIENTED_EDGE('E6',*,*,#196,.T.);
#198=EDGE_LOOP('F2',(#178,#179,#180,#197));
#199=FACE_OUTER_BOUND('F2',#198,.T.);
#200=ADVANCED_FACE('F2',(#199),#171,.T.);
#201=CARTESIAN_POINT('F3',(86.0,-13.750000000000000,
   -13.750000000000000));
#202=CARTESIAN_POINT('F3',(86.0,13.750000000000000,
   -13.750000000000000));
#203=CARTESIAN_POINT('F3',(86.0,-13.750000000000000,
   13.750000000000000));
#204=CARTESIAN_POINT('F3',(86.0,13.750000000000000,
   13.750000000000000));
#205=QUASI_UNIFORM_SURFACE('F3',1,1,((#201,#203),(#202,#204)),
   .PLANE_SURF.,.F.,.F.,.U.);
#206=ORIENTED_EDGE('F2',*,*,#196,.F.);
#207=EDGE_LOOP('F3',(#206));
#208=FACE_OUTER_BOUND('F3',#207,.T.);
#209=ADVANCED_FACE('F3',(#208),#205,.T.);
#210=CLOSED_SHELL('R2',(#149,#200,#209));
#211=MANIFOLD_SOLID_BREP('R2',#210);
ENDSEC;
END-ISO-10303-21;
