ISO-10303-21;
HEADER;
/* Generated by software containing ST-Developer
 * from STEP Tools, Inc. (www.steptools.com) 
 */

FILE_DESCRIPTION(
/* description */ (''),
/* implementation_level */ '2;1');

FILE_NAME(
/* name */ 'Z:\\Geberit\\Export\\NewStep\\31937.stp',
/* time_stamp */ '2014-04-01T20:18:10+02:00',
/* author */ ('bruh'),
/* organization */ (''),
/* preprocessor_version */ 'ST-DEVELOPER v15.2',
/* originating_system */ 'Autodesk Inventor 2014',
/* authorisation */ '');

FILE_SCHEMA (('AUTOMOTIVE_DESIGN { 1 0 10303 214 3 1 1 }'));
ENDSEC;

DATA;
#10=SHAPE_REPRESENTATION_RELATIONSHIP('SRR','None',#397,#11);
#11=ADVANCED_BREP_SHAPE_REPRESENTATION($,(#222),#388);
#12=STYLED_ITEM($,(#405),#222);
#13=CYLINDRICAL_SURFACE($,#232,12.5);
#14=CYLINDRICAL_SURFACE($,#239,16.6245);
#15=CYLINDRICAL_SURFACE($,#244,14.);
#16=FACE_BOUND($,#57,.T.);
#17=FACE_BOUND($,#60,.T.);
#18=FACE_BOUND($,#62,.T.);
#19=FACE_BOUND($,#64,.T.);
#20=FACE_BOUND($,#66,.T.);
#21=FACE_BOUND($,#68,.T.);
#22=FACE_BOUND($,#69,.T.);
#23=FACE_BOUND($,#70,.T.);
#24=FACE_BOUND($,#72,.T.);
#25=FACE_BOUND($,#73,.T.);
#26=FACE_BOUND($,#74,.T.);
#27=CIRCLE($,#230,14.1);
#28=CIRCLE($,#233,12.5);
#29=CIRCLE($,#234,12.5);
#30=CIRCLE($,#236,15.1245);
#31=CIRCLE($,#238,16.6245);
#32=CIRCLE($,#240,16.6245);
#33=CIRCLE($,#243,14.);
#34=CIRCLE($,#245,14.);
#35=CONICAL_SURFACE($,#229,17.4423048454133,75.);
#36=CONICAL_SURFACE($,#237,15.8745,45.0000000000001);
#37=CONICAL_SURFACE($,#241,18.7045548454133,75.0000000000001);
#38=FACE_OUTER_BOUND($,#51,.T.);
#39=FACE_OUTER_BOUND($,#52,.T.);
#40=FACE_OUTER_BOUND($,#53,.T.);
#41=FACE_OUTER_BOUND($,#54,.T.);
#42=FACE_OUTER_BOUND($,#55,.T.);
#43=FACE_OUTER_BOUND($,#56,.T.);
#44=FACE_OUTER_BOUND($,#58,.T.);
#45=FACE_OUTER_BOUND($,#59,.T.);
#46=FACE_OUTER_BOUND($,#61,.T.);
#47=FACE_OUTER_BOUND($,#63,.T.);
#48=FACE_OUTER_BOUND($,#65,.T.);
#49=FACE_OUTER_BOUND($,#67,.T.);
#50=FACE_OUTER_BOUND($,#71,.T.);
#51=EDGE_LOOP($,(#145,#146,#147,#148));
#52=EDGE_LOOP($,(#149,#150,#151,#152));
#53=EDGE_LOOP($,(#153,#154,#155,#156));
#54=EDGE_LOOP($,(#157,#158,#159,#160));
#55=EDGE_LOOP($,(#161,#162,#163,#164));
#56=EDGE_LOOP($,(#165));
#57=EDGE_LOOP($,(#166,#167,#168,#169,#170,#171));
#58=EDGE_LOOP($,(#172,#173,#174,#175));
#59=EDGE_LOOP($,(#176));
#60=EDGE_LOOP($,(#177));
#61=EDGE_LOOP($,(#178));
#62=EDGE_LOOP($,(#179));
#63=EDGE_LOOP($,(#180));
#64=EDGE_LOOP($,(#181));
#65=EDGE_LOOP($,(#182));
#66=EDGE_LOOP($,(#183));
#67=EDGE_LOOP($,(#184,#185,#186,#187,#188,#189));
#68=EDGE_LOOP($,(#190));
#69=EDGE_LOOP($,(#191));
#70=EDGE_LOOP($,(#192));
#71=EDGE_LOOP($,(#193));
#72=EDGE_LOOP($,(#194));
#73=EDGE_LOOP($,(#195));
#74=EDGE_LOOP($,(#196));
#75=LINE($,#309,#81);
#76=LINE($,#314,#82);
#77=LINE($,#321,#83);
#78=LINE($,#331,#84);
#79=LINE($,#341,#85);
#80=LINE($,#351,#86);
#81=VECTOR($,#251,8.29416619954394);
#82=VECTOR($,#252,8.29416619954396);
#83=VECTOR($,#255,8.29416619954395);
#84=VECTOR($,#258,8.29416619954395);
#85=VECTOR($,#261,8.29416619954395);
#86=VECTOR($,#264,8.29416619954396);
#87=(
BOUNDED_CURVE()
B_SPLINE_CURVE(2,(#305,#306,#307),.UNSPECIFIED.,.F.,.F.)
B_SPLINE_CURVE_WITH_KNOTS((3,3),(0.,2.08381108379267),.UNSPECIFIED.)
CURVE()
GEOMETRIC_REPRESENTATION_ITEM()
RATIONAL_B_SPLINE_CURVE((1.,1.15470053837926,1.))
REPRESENTATION_ITEM($)
);
#88=(
BOUNDED_CURVE()
B_SPLINE_CURVE(2,(#311,#312,#313),.UNSPECIFIED.,.F.,.F.)
B_SPLINE_CURVE_WITH_KNOTS((3,3),(0.,2.08381108379268),.UNSPECIFIED.)
CURVE()
GEOMETRIC_REPRESENTATION_ITEM()
RATIONAL_B_SPLINE_CURVE((1.,1.15470053837925,1.))
REPRESENTATION_ITEM($)
);
#89=(
BOUNDED_CURVE()
B_SPLINE_CURVE(2,(#317,#318,#319),.UNSPECIFIED.,.F.,.F.)
B_SPLINE_CURVE_WITH_KNOTS((3,3),(0.,2.08381108379267),.UNSPECIFIED.)
CURVE()
GEOMETRIC_REPRESENTATION_ITEM()
RATIONAL_B_SPLINE_CURVE((1.,1.15470053837926,1.))
REPRESENTATION_ITEM($)
);
#90=(
BOUNDED_CURVE()
B_SPLINE_CURVE(2,(#322,#323,#324),.UNSPECIFIED.,.F.,.F.)
B_SPLINE_CURVE_WITH_KNOTS((3,3),(0.,2.08381108379268),.UNSPECIFIED.)
CURVE()
GEOMETRIC_REPRESENTATION_ITEM()
RATIONAL_B_SPLINE_CURVE((1.,1.15470053837925,1.))
REPRESENTATION_ITEM($)
);
#91=(
BOUNDED_CURVE()
B_SPLINE_CURVE(2,(#327,#328,#329),.UNSPECIFIED.,.F.,.F.)
B_SPLINE_CURVE_WITH_KNOTS((3,3),(0.,2.08381108379267),.UNSPECIFIED.)
CURVE()
GEOMETRIC_REPRESENTATION_ITEM()
RATIONAL_B_SPLINE_CURVE((1.,1.15470053837926,1.))
REPRESENTATION_ITEM($)
);
#92=(
BOUNDED_CURVE()
B_SPLINE_CURVE(2,(#332,#333,#334),.UNSPECIFIED.,.F.,.F.)
B_SPLINE_CURVE_WITH_KNOTS((3,3),(0.,2.08381108379268),.UNSPECIFIED.)
CURVE()
GEOMETRIC_REPRESENTATION_ITEM()
RATIONAL_B_SPLINE_CURVE((1.,1.15470053837926,1.))
REPRESENTATION_ITEM($)
);
#93=(
BOUNDED_CURVE()
B_SPLINE_CURVE(2,(#337,#338,#339),.UNSPECIFIED.,.F.,.F.)
B_SPLINE_CURVE_WITH_KNOTS((3,3),(0.,2.08381108379267),.UNSPECIFIED.)
CURVE()
GEOMETRIC_REPRESENTATION_ITEM()
RATIONAL_B_SPLINE_CURVE((1.,1.15470053837926,1.))
REPRESENTATION_ITEM($)
);
#94=(
BOUNDED_CURVE()
B_SPLINE_CURVE(2,(#342,#343,#344),.UNSPECIFIED.,.F.,.F.)
B_SPLINE_CURVE_WITH_KNOTS((3,3),(0.,2.08381108379268),.UNSPECIFIED.)
CURVE()
GEOMETRIC_REPRESENTATION_ITEM()
RATIONAL_B_SPLINE_CURVE((1.,1.15470053837925,1.))
REPRESENTATION_ITEM($)
);
#95=(
BOUNDED_CURVE()
B_SPLINE_CURVE(2,(#347,#348,#349),.UNSPECIFIED.,.F.,.F.)
B_SPLINE_CURVE_WITH_KNOTS((3,3),(0.,2.08381108379267),.UNSPECIFIED.)
CURVE()
GEOMETRIC_REPRESENTATION_ITEM()
RATIONAL_B_SPLINE_CURVE((1.,1.15470053837924,1.))
REPRESENTATION_ITEM($)
);
#96=(
BOUNDED_CURVE()
B_SPLINE_CURVE(2,(#352,#353,#354),.UNSPECIFIED.,.F.,.F.)
B_SPLINE_CURVE_WITH_KNOTS((3,3),(0.,2.08381108379268),.UNSPECIFIED.)
CURVE()
GEOMETRIC_REPRESENTATION_ITEM()
RATIONAL_B_SPLINE_CURVE((1.,1.15470053837925,1.))
REPRESENTATION_ITEM($)
);
#97=(
BOUNDED_CURVE()
B_SPLINE_CURVE(2,(#358,#359,#360),.UNSPECIFIED.,.F.,.F.)
B_SPLINE_CURVE_WITH_KNOTS((3,3),(0.,2.08381108379267),.UNSPECIFIED.)
CURVE()
GEOMETRIC_REPRESENTATION_ITEM()
RATIONAL_B_SPLINE_CURVE((1.,1.15470053837925,1.))
REPRESENTATION_ITEM($)
);
#98=(
BOUNDED_CURVE()
B_SPLINE_CURVE(2,(#362,#363,#364),.UNSPECIFIED.,.F.,.F.)
B_SPLINE_CURVE_WITH_KNOTS((3,3),(0.,2.08381108379267),.UNSPECIFIED.)
CURVE()
GEOMETRIC_REPRESENTATION_ITEM()
RATIONAL_B_SPLINE_CURVE((1.,1.15470053837924,1.))
REPRESENTATION_ITEM($)
);
#99=VERTEX_POINT($,#303);
#100=VERTEX_POINT($,#304);
#101=VERTEX_POINT($,#308);
#102=VERTEX_POINT($,#310);
#103=VERTEX_POINT($,#316);
#104=VERTEX_POINT($,#320);
#105=VERTEX_POINT($,#326);
#106=VERTEX_POINT($,#330);
#107=VERTEX_POINT($,#336);
#108=VERTEX_POINT($,#340);
#109=VERTEX_POINT($,#346);
#110=VERTEX_POINT($,#350);
#111=VERTEX_POINT($,#356);
#112=VERTEX_POINT($,#366);
#113=VERTEX_POINT($,#368);
#114=VERTEX_POINT($,#371);
#115=VERTEX_POINT($,#374);
#116=VERTEX_POINT($,#377);
#117=VERTEX_POINT($,#381);
#118=VERTEX_POINT($,#384);
#119=EDGE_CURVE($,#99,#100,#87,.T.);
#120=EDGE_CURVE($,#101,#99,#75,.T.);
#121=EDGE_CURVE($,#102,#101,#88,.T.);
#122=EDGE_CURVE($,#100,#102,#76,.T.);
#123=EDGE_CURVE($,#103,#99,#89,.T.);
#124=EDGE_CURVE($,#104,#103,#77,.T.);
#125=EDGE_CURVE($,#101,#104,#90,.T.);
#126=EDGE_CURVE($,#105,#103,#91,.T.);
#127=EDGE_CURVE($,#106,#105,#78,.T.);
#128=EDGE_CURVE($,#104,#106,#92,.T.);
#129=EDGE_CURVE($,#107,#105,#93,.T.);
#130=EDGE_CURVE($,#108,#107,#79,.T.);
#131=EDGE_CURVE($,#106,#108,#94,.T.);
#132=EDGE_CURVE($,#109,#107,#95,.T.);
#133=EDGE_CURVE($,#109,#110,#80,.T.);
#134=EDGE_CURVE($,#108,#110,#96,.T.);
#135=EDGE_CURVE($,#111,#111,#27,.T.);
#136=EDGE_CURVE($,#110,#102,#97,.T.);
#137=EDGE_CURVE($,#100,#109,#98,.T.);
#138=EDGE_CURVE($,#112,#112,#28,.T.);
#139=EDGE_CURVE($,#113,#113,#29,.T.);
#140=EDGE_CURVE($,#114,#114,#30,.T.);
#141=EDGE_CURVE($,#115,#115,#31,.T.);
#142=EDGE_CURVE($,#116,#116,#32,.T.);
#143=EDGE_CURVE($,#117,#117,#33,.T.);
#144=EDGE_CURVE($,#118,#118,#34,.T.);
#145=ORIENTED_EDGE($,*,*,#119,.F.);
#146=ORIENTED_EDGE($,*,*,#120,.F.);
#147=ORIENTED_EDGE($,*,*,#121,.F.);
#148=ORIENTED_EDGE($,*,*,#122,.F.);
#149=ORIENTED_EDGE($,*,*,#123,.F.);
#150=ORIENTED_EDGE($,*,*,#124,.F.);
#151=ORIENTED_EDGE($,*,*,#125,.F.);
#152=ORIENTED_EDGE($,*,*,#120,.T.);
#153=ORIENTED_EDGE($,*,*,#126,.F.);
#154=ORIENTED_EDGE($,*,*,#127,.F.);
#155=ORIENTED_EDGE($,*,*,#128,.F.);
#156=ORIENTED_EDGE($,*,*,#124,.T.);
#157=ORIENTED_EDGE($,*,*,#129,.F.);
#158=ORIENTED_EDGE($,*,*,#130,.F.);
#159=ORIENTED_EDGE($,*,*,#131,.F.);
#160=ORIENTED_EDGE($,*,*,#127,.T.);
#161=ORIENTED_EDGE($,*,*,#132,.F.);
#162=ORIENTED_EDGE($,*,*,#133,.T.);
#163=ORIENTED_EDGE($,*,*,#134,.F.);
#164=ORIENTED_EDGE($,*,*,#130,.T.);
#165=ORIENTED_EDGE($,*,*,#135,.F.);
#166=ORIENTED_EDGE($,*,*,#121,.T.);
#167=ORIENTED_EDGE($,*,*,#125,.T.);
#168=ORIENTED_EDGE($,*,*,#128,.T.);
#169=ORIENTED_EDGE($,*,*,#131,.T.);
#170=ORIENTED_EDGE($,*,*,#134,.T.);
#171=ORIENTED_EDGE($,*,*,#136,.T.);
#172=ORIENTED_EDGE($,*,*,#136,.F.);
#173=ORIENTED_EDGE($,*,*,#133,.F.);
#174=ORIENTED_EDGE($,*,*,#137,.F.);
#175=ORIENTED_EDGE($,*,*,#122,.T.);
#176=ORIENTED_EDGE($,*,*,#138,.F.);
#177=ORIENTED_EDGE($,*,*,#139,.T.);
#178=ORIENTED_EDGE($,*,*,#140,.F.);
#179=ORIENTED_EDGE($,*,*,#138,.T.);
#180=ORIENTED_EDGE($,*,*,#141,.F.);
#181=ORIENTED_EDGE($,*,*,#140,.T.);
#182=ORIENTED_EDGE($,*,*,#142,.F.);
#183=ORIENTED_EDGE($,*,*,#141,.T.);
#184=ORIENTED_EDGE($,*,*,#119,.T.);
#185=ORIENTED_EDGE($,*,*,#137,.T.);
#186=ORIENTED_EDGE($,*,*,#132,.T.);
#187=ORIENTED_EDGE($,*,*,#129,.T.);
#188=ORIENTED_EDGE($,*,*,#126,.T.);
#189=ORIENTED_EDGE($,*,*,#123,.T.);
#190=ORIENTED_EDGE($,*,*,#142,.T.);
#191=ORIENTED_EDGE($,*,*,#143,.F.);
#192=ORIENTED_EDGE($,*,*,#135,.T.);
#193=ORIENTED_EDGE($,*,*,#144,.F.);
#194=ORIENTED_EDGE($,*,*,#143,.T.);
#195=ORIENTED_EDGE($,*,*,#139,.F.);
#196=ORIENTED_EDGE($,*,*,#144,.T.);
#197=PLANE($,#224);
#198=PLANE($,#225);
#199=PLANE($,#226);
#200=PLANE($,#227);
#201=PLANE($,#228);
#202=PLANE($,#231);
#203=PLANE($,#235);
#204=PLANE($,#242);
#205=PLANE($,#246);
#206=ADVANCED_FACE($,(#38),#197,.F.);
#207=ADVANCED_FACE($,(#39),#198,.F.);
#208=ADVANCED_FACE($,(#40),#199,.F.);
#209=ADVANCED_FACE($,(#41),#200,.F.);
#210=ADVANCED_FACE($,(#42),#201,.F.);
#211=ADVANCED_FACE($,(#43,#16),#35,.T.);
#212=ADVANCED_FACE($,(#44),#202,.F.);
#213=ADVANCED_FACE($,(#45,#17),#13,.F.);
#214=ADVANCED_FACE($,(#46,#18),#203,.T.);
#215=ADVANCED_FACE($,(#47,#19),#36,.T.);
#216=ADVANCED_FACE($,(#48,#20),#14,.T.);
#217=ADVANCED_FACE($,(#49,#21),#37,.T.);
#218=ADVANCED_FACE($,(#22,#23),#204,.T.);
#219=ADVANCED_FACE($,(#50,#24),#15,.T.);
#220=ADVANCED_FACE($,(#25,#26),#205,.T.);
#221=CLOSED_SHELL($,(#206,#207,#208,#209,#210,#211,#212,#213,#214,#215,
#216,#217,#218,#219,#220));
#222=MANIFOLD_SOLID_BREP('Volumenk\X\F6rper1',#221);
#223=AXIS2_PLACEMENT_3D('placement',#301,#247,#248);
#224=AXIS2_PLACEMENT_3D($,#302,#249,#250);
#225=AXIS2_PLACEMENT_3D($,#315,#253,#254);
#226=AXIS2_PLACEMENT_3D($,#325,#256,#257);
#227=AXIS2_PLACEMENT_3D($,#335,#259,#260);
#228=AXIS2_PLACEMENT_3D($,#345,#262,#263);
#229=AXIS2_PLACEMENT_3D($,#355,#265,#266);
#230=AXIS2_PLACEMENT_3D($,#357,#267,#268);
#231=AXIS2_PLACEMENT_3D($,#361,#269,#270);
#232=AXIS2_PLACEMENT_3D($,#365,#271,#272);
#233=AXIS2_PLACEMENT_3D($,#367,#273,#274);
#234=AXIS2_PLACEMENT_3D($,#369,#275,#276);
#235=AXIS2_PLACEMENT_3D($,#370,#277,#278);
#236=AXIS2_PLACEMENT_3D($,#372,#279,#280);
#237=AXIS2_PLACEMENT_3D($,#373,#281,#282);
#238=AXIS2_PLACEMENT_3D($,#375,#283,#284);
#239=AXIS2_PLACEMENT_3D($,#376,#285,#286);
#240=AXIS2_PLACEMENT_3D($,#378,#287,#288);
#241=AXIS2_PLACEMENT_3D($,#379,#289,#290);
#242=AXIS2_PLACEMENT_3D($,#380,#291,#292);
#243=AXIS2_PLACEMENT_3D($,#382,#293,#294);
#244=AXIS2_PLACEMENT_3D($,#383,#295,#296);
#245=AXIS2_PLACEMENT_3D($,#385,#297,#298);
#246=AXIS2_PLACEMENT_3D($,#386,#299,#300);
#247=DIRECTION('axis',(0.,0.,1.));
#248=DIRECTION('refdir',(1.,0.,0.));
#249=DIRECTION('center_axis',(1.98254111540207E-016,-0.499999999999999,
0.866025403784439));
#250=DIRECTION('ref_axis',(0.,-0.866025403784439,-0.499999999999999));
#251=DIRECTION($,(1.,6.08453061007792E-017,1.0538716156863E-016));
#252=DIRECTION($,(-1.,-1.63034506329283E-017,-6.08453061007792E-017));
#253=DIRECTION('center_axis',(1.98254111540207E-016,0.5,0.866025403784438));
#254=DIRECTION('ref_axis',(0.,-0.866025403784438,0.500000000000001));
#255=DIRECTION($,(1.,6.08453061007792E-017,1.0538716156863E-016));
#256=DIRECTION('center_axis',(1.98254111540207E-016,1.,-1.66533453693773E-016));
#257=DIRECTION('ref_axis',(0.,0.,1.));
#258=DIRECTION($,(1.,6.08453061007792E-017,1.0538716156863E-016));
#259=DIRECTION('center_axis',(1.98254111540207E-016,0.5,-0.866025403784439));
#260=DIRECTION('ref_axis',(0.,0.866025403784439,0.5));
#261=DIRECTION($,(1.,6.08453061007792E-017,1.0538716156863E-016));
#262=DIRECTION('center_axis',(1.98254111540207E-016,-0.5,-0.866025403784439));
#263=DIRECTION('ref_axis',(0.,0.866025403784439,-0.5));
#264=DIRECTION($,(-1.,-1.63034506329283E-017,6.08453061007792E-017));
#265=DIRECTION('center_axis',(1.,1.21690612201558E-016,0.));
#266=DIRECTION('ref_axis',(-1.0538716156863E-016,0.866025403784439,0.5));
#267=DIRECTION('center_axis',(-1.,-6.08453061007791E-017,1.0538716156863E-016));
#268=DIRECTION('ref_axis',(-1.0538716156863E-016,0.866025403784438,-0.500000000000001));
#269=DIRECTION('center_axis',(1.98254111540207E-016,-1.,-3.83272963253619E-032));
#270=DIRECTION('ref_axis',(0.,0.,-1.));
#271=DIRECTION('center_axis',(-1.,-1.21690612201558E-016,0.));
#272=DIRECTION('ref_axis',(-1.0538716156863E-016,0.866025403784439,0.5));
#273=DIRECTION('center_axis',(-1.,-6.08453061007791E-017,1.0538716156863E-016));
#274=DIRECTION('ref_axis',(-1.0538716156863E-016,0.866025403784438,-0.500000000000001));
#275=DIRECTION('center_axis',(-1.,-6.08453061007791E-017,1.0538716156863E-016));
#276=DIRECTION('ref_axis',(-1.0538716156863E-016,0.866025403784438,-0.500000000000001));
#277=DIRECTION('center_axis',(1.,1.21690612201558E-016,0.));
#278=DIRECTION('ref_axis',(0.,0.5,-0.866025403784439));
#279=DIRECTION('center_axis',(-1.,-6.08453061007791E-017,1.0538716156863E-016));
#280=DIRECTION('ref_axis',(-1.0538716156863E-016,0.866025403784438,-0.500000000000001));
#281=DIRECTION('center_axis',(-1.,-1.21690612201558E-016,0.));
#282=DIRECTION('ref_axis',(-1.0538716156863E-016,0.866025403784439,0.5));
#283=DIRECTION('center_axis',(-1.,-6.08453061007791E-017,1.0538716156863E-016));
#284=DIRECTION('ref_axis',(-1.0538716156863E-016,0.866025403784438,-0.500000000000001));
#285=DIRECTION('center_axis',(-1.,-1.21690612201558E-016,0.));
#286=DIRECTION('ref_axis',(-1.0538716156863E-016,0.866025403784439,0.5));
#287=DIRECTION('center_axis',(-1.,-6.08453061007791E-017,1.0538716156863E-016));
#288=DIRECTION('ref_axis',(-1.0538716156863E-016,0.866025403784438,-0.500000000000001));
#289=DIRECTION('center_axis',(-1.,-1.21690612201558E-016,0.));
#290=DIRECTION('ref_axis',(-1.0538716156863E-016,0.866025403784439,0.5));
#291=DIRECTION('center_axis',(-1.,-1.21690612201558E-016,0.));
#292=DIRECTION('ref_axis',(0.,-0.5,0.866025403784439));
#293=DIRECTION('center_axis',(-1.,-6.08453061007791E-017,1.0538716156863E-016));
#294=DIRECTION('ref_axis',(-1.0538716156863E-016,0.866025403784438,-0.500000000000001));
#295=DIRECTION('center_axis',(-1.,-1.21690612201558E-016,0.));
#296=DIRECTION('ref_axis',(-1.0538716156863E-016,0.866025403784439,0.5));
#297=DIRECTION('center_axis',(-1.,-1.21690612201558E-016,0.));
#298=DIRECTION('ref_axis',(-1.0538716156863E-016,0.866025403784439,0.5));
#299=DIRECTION('center_axis',(-1.,-1.21690612201558E-016,0.));
#300=DIRECTION('ref_axis',(6.08453061007792E-017,-0.5,0.866025403784439));
#301=CARTESIAN_POINT('',(0.,0.,0.));
#302=CARTESIAN_POINT('Origin',(37.,-1.33226762955019E-014,-20.7846096908265));
#303=CARTESIAN_POINT('',(47.0853019679182,-1.55431223447522E-014,-20.7846096908265));
#304=CARTESIAN_POINT('',(47.0853019679182,18.,-10.3923048454132));
#305=CARTESIAN_POINT('Ctrl Pts',(47.0853019679182,2.98850087558821E-015,
-20.7846096908265));
#306=CARTESIAN_POINT('Ctrl Pts',(48.4776068133314,9.00000000000001,-15.5884572681199));
#307=CARTESIAN_POINT('Ctrl Pts',(47.0853019679182,18.,-10.3923048454133));
#308=CARTESIAN_POINT('',(38.7911357683742,-2.22044604925031E-014,-20.7846096908265));
#309=CARTESIAN_POINT($,(42.9382188681462,0.,-20.7846096908265));
#310=CARTESIAN_POINT('',(38.7911357683742,18.,-10.3923048454132));
#311=CARTESIAN_POINT('Ctrl Pts',(38.7911357683742,18.,-10.3923048454133));
#312=CARTESIAN_POINT('Ctrl Pts',(37.3988309229609,8.99999999999999,-15.5884572681199));
#313=CARTESIAN_POINT('Ctrl Pts',(38.7911357683742,-3.2525833780139E-014,
-20.7846096908265));
#314=CARTESIAN_POINT($,(47.0853019679182,18.,-10.3923048454133));
#315=CARTESIAN_POINT('Origin',(37.,-18.,-10.3923048454132));
#316=CARTESIAN_POINT('',(47.0853019679182,-18.,-10.3923048454132));
#317=CARTESIAN_POINT('Ctrl Pts',(47.0853019679182,-18.,-10.3923048454133));
#318=CARTESIAN_POINT('Ctrl Pts',(48.4776068133314,-8.99999999999999,-15.5884572681199));
#319=CARTESIAN_POINT('Ctrl Pts',(47.0853019679182,-2.41525967554923E-014,
-20.7846096908265));
#320=CARTESIAN_POINT('',(38.7911357683742,-18.,-10.3923048454132));
#321=CARTESIAN_POINT($,(42.9382188681462,-18.,-10.3923048454133));
#322=CARTESIAN_POINT('Ctrl Pts',(38.7911357683742,7.16310487982974E-015,
-20.7846096908265));
#323=CARTESIAN_POINT('Ctrl Pts',(37.3988309229609,-9.,-15.5884572681199));
#324=CARTESIAN_POINT('Ctrl Pts',(38.7911357683742,-18.,-10.3923048454132));
#325=CARTESIAN_POINT('Origin',(37.,-18.,10.3923048454133));
#326=CARTESIAN_POINT('',(47.0853019679182,-18.,10.3923048454132));
#327=CARTESIAN_POINT('Ctrl Pts',(47.0853019679182,-18.,10.3923048454132));
#328=CARTESIAN_POINT('Ctrl Pts',(48.4776068133314,-18.,2.22044604925031E-015));
#329=CARTESIAN_POINT('Ctrl Pts',(47.0853019679182,-18.,-10.3923048454132));
#330=CARTESIAN_POINT('',(38.7911357683742,-18.,10.3923048454132));
#331=CARTESIAN_POINT($,(42.9382188681462,-18.,10.3923048454132));
#332=CARTESIAN_POINT('Ctrl Pts',(38.7911357683742,-18.,-10.3923048454133));
#333=CARTESIAN_POINT('Ctrl Pts',(37.3988309229609,-18.,3.33066907387547E-015));
#334=CARTESIAN_POINT('Ctrl Pts',(38.7911357683742,-18.,10.3923048454133));
#335=CARTESIAN_POINT('Origin',(37.,1.11022302462516E-015,20.7846096908265));
#336=CARTESIAN_POINT('',(47.0853019679182,-3.33066907387547E-015,20.7846096908265));
#337=CARTESIAN_POINT('Ctrl Pts',(47.0853019679182,-8.11467542803562E-015,
20.7846096908265));
#338=CARTESIAN_POINT('Ctrl Pts',(48.4776068133314,-8.99999999999995,15.5884572681199));
#339=CARTESIAN_POINT('Ctrl Pts',(47.0853019679182,-18.,10.3923048454133));
#340=CARTESIAN_POINT('',(38.7911357683742,-4.44089209850063E-015,20.7846096908265));
#341=CARTESIAN_POINT($,(42.9382188681462,5.55111512312578E-015,20.7846096908265));
#342=CARTESIAN_POINT('Ctrl Pts',(38.7911357683742,-18.,10.3923048454133));
#343=CARTESIAN_POINT('Ctrl Pts',(37.3988309229609,-8.99999999999999,15.5884572681199));
#344=CARTESIAN_POINT('Ctrl Pts',(38.7911357683742,2.30386803438172E-014,
20.7846096908265));
#345=CARTESIAN_POINT('Origin',(37.,18.,10.3923048454133));
#346=CARTESIAN_POINT('',(47.0853019679182,18.,10.3923048454132));
#347=CARTESIAN_POINT('Ctrl Pts',(47.0853019679182,18.,10.3923048454132));
#348=CARTESIAN_POINT('Ctrl Pts',(48.4776068133314,8.99999999999999,15.5884572681199));
#349=CARTESIAN_POINT('Ctrl Pts',(47.0853019679182,4.22218713154641E-015,
20.7846096908265));
#350=CARTESIAN_POINT('',(38.7911357683742,18.,10.3923048454132));
#351=CARTESIAN_POINT($,(47.0853019679182,18.,10.3923048454132));
#352=CARTESIAN_POINT('Ctrl Pts',(38.7911357683742,-2.32650814261463E-014,
20.7846096908265));
#353=CARTESIAN_POINT('Ctrl Pts',(37.3988309229609,8.99999999999997,15.5884572681199));
#354=CARTESIAN_POINT('Ctrl Pts',(38.7911357683742,18.,10.3923048454132));
#355=CARTESIAN_POINT('Origin',(37.8955678841871,4.61153485555245E-015,0.));
#356=CARTESIAN_POINT('',(37.,12.2109581933606,-7.05000000000002));
#357=CARTESIAN_POINT('Origin',(37.,2.25127632572883E-015,-3.89932497803932E-015));
#358=CARTESIAN_POINT('Ctrl Pts',(38.7911357683742,18.,10.3923048454133));
#359=CARTESIAN_POINT('Ctrl Pts',(37.3988309229609,18.,0.));
#360=CARTESIAN_POINT('Ctrl Pts',(38.7911357683742,18.,-10.3923048454133));
#361=CARTESIAN_POINT('Origin',(37.,18.,-10.3923048454132));
#362=CARTESIAN_POINT('Ctrl Pts',(47.0853019679182,18.,-10.3923048454133));
#363=CARTESIAN_POINT('Ctrl Pts',(48.4776068133314,18.,0.));
#364=CARTESIAN_POINT('Ctrl Pts',(47.0853019679182,18.,10.3923048454133));
#365=CARTESIAN_POINT('Origin',(33.,4.01579020265143E-015,0.));
#366=CARTESIAN_POINT('',(66.,10.8253175473055,-6.25));
#367=CARTESIAN_POINT('Origin',(66.,4.01579020265142E-015,-6.9555526635296E-015));
#368=CARTESIAN_POINT('',(-8.81677440228919E-016,10.8253175473055,-6.25));
#369=CARTESIAN_POINT('Origin',(1.52113265251948E-015,9.25537818624379E-032,
-1.6030785261839E-031));
#370=CARTESIAN_POINT('Origin',(66.,11.9617593834216,6.906125));
#371=CARTESIAN_POINT('',(66.,13.0982012195378,-7.56225));
#372=CARTESIAN_POINT('Origin',(66.,4.01579020265142E-015,-6.9555526635296E-015));
#373=CARTESIAN_POINT('Origin',(65.25,7.94031244615169E-015,0.));
#374=CARTESIAN_POINT('',(64.5,14.3972393252144,-8.31225));
#375=CARTESIAN_POINT('Origin',(64.5,3.92452224350025E-015,-6.79747192117665E-015));
#376=CARTESIAN_POINT('Origin',(56.35,6.85726599755782E-015,0.));
#377=CARTESIAN_POINT('',(48.2,14.3972393252144,-8.31225));
#378=CARTESIAN_POINT('Origin',(48.2,2.93274375405756E-015,-5.07966118760798E-015));
#379=CARTESIAN_POINT('Origin',(47.6426509839591,5.79766336514316E-015,0.));
#380=CARTESIAN_POINT('Origin',(37.,12.1676569231714,7.02500000000002));
#381=CARTESIAN_POINT('',(37.,12.1243556529822,-7.00000000000002));
#382=CARTESIAN_POINT('Origin',(37.,2.25127632572883E-015,-3.89932497803932E-015));
#383=CARTESIAN_POINT('Origin',(18.5,2.25127632572883E-015,-2.46519032881566E-031));
#384=CARTESIAN_POINT('',(-1.03975818258187E-015,12.1243556529822,-7.00000000000001));
#385=CARTESIAN_POINT('Origin',(1.43293196366119E-015,1.74374367901112E-031,
1.3684555315672E-047));
#386=CARTESIAN_POINT('Origin',(8.06524173059861E-017,11.4748366001438,6.625));
#387=UNCERTAINTY_MEASURE_WITH_UNIT(LENGTH_MEASURE(0.01),#389,
'DISTANCE_ACCURACY_VALUE',
'Maximum model space distance between geometric entities at asserted c
onnectivities');
#388=(
GEOMETRIC_REPRESENTATION_CONTEXT(3)
GLOBAL_UNCERTAINTY_ASSIGNED_CONTEXT((#387))
GLOBAL_UNIT_ASSIGNED_CONTEXT((#389,#392,#390))
REPRESENTATION_CONTEXT('','3D')
);
#389=(
LENGTH_UNIT()
NAMED_UNIT(*)
SI_UNIT(.MILLI.,.METRE.)
);
#390=(
NAMED_UNIT(*)
SI_UNIT($,.STERADIAN.)
SOLID_ANGLE_UNIT()
);
#391=DIMENSIONAL_EXPONENTS(0.,0.,0.,0.,0.,0.,0.);
#392=(
CONVERSION_BASED_UNIT('degree',#394)
NAMED_UNIT(#391)
PLANE_ANGLE_UNIT()
);
#393=(
NAMED_UNIT(*)
PLANE_ANGLE_UNIT()
SI_UNIT($,.RADIAN.)
);
#394=PLANE_ANGLE_MEASURE_WITH_UNIT(PLANE_ANGLE_MEASURE(0.01745329252),#393);
#395=SHAPE_DEFINITION_REPRESENTATION(#396,#397);
#396=PRODUCT_DEFINITION_SHAPE('',$,#399);
#397=SHAPE_REPRESENTATION('',(#223),#388);
#398=PRODUCT_DEFINITION_CONTEXT('3D Mechanical Parts',#402,'design');
#399=PRODUCT_DEFINITION('31937','31937',#400,#398);
#400=PRODUCT_DEFINITION_FORMATION('',$,#404);
#401=APPLICATION_PROTOCOL_DEFINITION('international standard',
'automotive_design',2009,#402);
#402=APPLICATION_CONTEXT(
'Core Data for Automotive Mechanical Design Process');
#403=PRODUCT_CONTEXT('3D Mechanical Parts',#402,'mechanical');
#404=PRODUCT('31937','31937',$,(#403));
#405=PRESENTATION_STYLE_ASSIGNMENT((#406));
#406=SURFACE_STYLE_USAGE(.BOTH.,#407);
#407=SURFACE_SIDE_STYLE($,(#408));
#408=SURFACE_STYLE_FILL_AREA(#409);
#409=FILL_AREA_STYLE($,(#410));
#410=FILL_AREA_STYLE_COLOUR($,#411);
#411=COLOUR_RGB('',1.,1.,1.);
ENDSEC;
END-ISO-10303-21;
