ISO-10303-21;
HEADER;
/* Generated by software containing ST-Developer
 * from STEP Tools, Inc. (www.steptools.com) 
 */

FILE_DESCRIPTION(
/* description */ (''),
/* implementation_level */ '2;1');

FILE_NAME(
/* name */ '43218.stp',
/* time_stamp */ '2023-09-08T11:23:38+02:00',
/* author */ ('JANAN'),
/* organization */ (''),
/* preprocessor_version */ 'ST-DEVELOPER v19.2',
/* originating_system */ 'Autodesk Inventor 2023',
/* authorisation */ '');

FILE_SCHEMA (('AUTOMOTIVE_DESIGN { 1 0 10303 214 3 1 1 }'));
ENDSEC;

DATA;
#10=MECHANICAL_DESIGN_GEOMETRIC_PRESENTATION_REPRESENTATION('',(#216,#217,
#218,#219,#220,#221,#222,#223,#224,#225,#226,#227,#228,#229,#230,#231,#232),
#471);
#11=SHAPE_REPRESENTATION_RELATIONSHIP('SRR','None',#478,#12);
#12=ADVANCED_BREP_SHAPE_REPRESENTATION('',(#13),#470);
#13=MANIFOLD_SOLID_BREP('Volumenk\X\F6rper1',#249);
#14=FACE_BOUND('',#57,.T.);
#15=FACE_BOUND('',#59,.T.);
#16=PLANE('',#286);
#17=PLANE('',#306);
#18=PLANE('',#308);
#19=PLANE('',#309);
#20=TOROIDAL_SURFACE('',#281,26.2,1.);
#21=TOROIDAL_SURFACE('',#289,30.2,3.);
#22=TOROIDAL_SURFACE('',#298,29.1,3.5);
#23=TOROIDAL_SURFACE('',#301,25.85,3.);
#24=TOROIDAL_SURFACE('',#310,29.1,2.);
#25=CYLINDRICAL_SURFACE('',#276,27.5);
#26=CYLINDRICAL_SURFACE('',#287,27.2);
#27=CYLINDRICAL_SURFACE('',#292,28.85);
#28=FACE_OUTER_BOUND('',#44,.T.);
#29=FACE_OUTER_BOUND('',#45,.T.);
#30=FACE_OUTER_BOUND('',#46,.T.);
#31=FACE_OUTER_BOUND('',#47,.T.);
#32=FACE_OUTER_BOUND('',#48,.T.);
#33=FACE_OUTER_BOUND('',#49,.T.);
#34=FACE_OUTER_BOUND('',#50,.T.);
#35=FACE_OUTER_BOUND('',#51,.T.);
#36=FACE_OUTER_BOUND('',#52,.T.);
#37=FACE_OUTER_BOUND('',#53,.T.);
#38=FACE_OUTER_BOUND('',#54,.T.);
#39=FACE_OUTER_BOUND('',#55,.T.);
#40=FACE_OUTER_BOUND('',#56,.T.);
#41=FACE_OUTER_BOUND('',#58,.T.);
#42=FACE_OUTER_BOUND('',#60,.T.);
#43=FACE_OUTER_BOUND('',#61,.T.);
#44=EDGE_LOOP('',(#150,#151,#152,#153,#154));
#45=EDGE_LOOP('',(#155,#156,#157,#158,#159,#160));
#46=EDGE_LOOP('',(#161,#162,#163,#164,#165));
#47=EDGE_LOOP('',(#166,#167,#168,#169,#170));
#48=EDGE_LOOP('',(#171));
#49=EDGE_LOOP('',(#172,#173,#174,#175,#176));
#50=EDGE_LOOP('',(#177,#178,#179,#180));
#51=EDGE_LOOP('',(#181,#182,#183,#184,#185));
#52=EDGE_LOOP('',(#186,#187,#188,#189));
#53=EDGE_LOOP('',(#190,#191,#192,#193));
#54=EDGE_LOOP('',(#194,#195,#196,#197,#198));
#55=EDGE_LOOP('',(#199,#200,#201,#202));
#56=EDGE_LOOP('',(#203));
#57=EDGE_LOOP('',(#204));
#58=EDGE_LOOP('',(#205));
#59=EDGE_LOOP('',(#206));
#60=EDGE_LOOP('',(#207));
#61=EDGE_LOOP('',(#208,#209,#210,#211));
#62=LINE('',#407,#69);
#63=LINE('',#415,#70);
#64=LINE('',#418,#71);
#65=LINE('',#431,#72);
#66=LINE('',#441,#73);
#67=LINE('',#448,#74);
#68=LINE('',#459,#75);
#69=VECTOR('',#318,1.);
#70=VECTOR('',#329,27.5);
#71=VECTOR('',#332,1.);
#72=VECTOR('',#349,27.2);
#73=VECTOR('',#362,28.85);
#74=VECTOR('',#371,28.85);
#75=VECTOR('',#386,27.9018666706);
#76=CIRCLE('',#273,27.5);
#77=CIRCLE('',#274,27.9);
#78=CIRCLE('',#275,27.5);
#79=CIRCLE('',#277,27.5);
#80=CIRCLE('',#278,27.5);
#81=CIRCLE('',#280,27.9);
#82=CIRCLE('',#282,26.2);
#83=CIRCLE('',#283,1.);
#84=CIRCLE('',#284,27.2);
#85=CIRCLE('',#285,27.2);
#86=CIRCLE('',#288,27.2);
#87=CIRCLE('',#290,3.);
#88=CIRCLE('',#291,27.9018666706);
#89=CIRCLE('',#293,28.85);
#90=CIRCLE('',#294,28.85);
#91=CIRCLE('',#295,28.85);
#92=CIRCLE('',#297,31.7811555509);
#93=CIRCLE('',#299,29.1);
#94=CIRCLE('',#300,3.5);
#95=CIRCLE('',#302,3.);
#96=CIRCLE('',#303,25.85);
#97=CIRCLE('',#305,30.6320888862);
#98=CIRCLE('',#307,29.1);
#99=CIRCLE('',#311,2.);
#100=VERTEX_POINT('',#403);
#101=VERTEX_POINT('',#404);
#102=VERTEX_POINT('',#406);
#103=VERTEX_POINT('',#411);
#104=VERTEX_POINT('',#412);
#105=VERTEX_POINT('',#417);
#106=VERTEX_POINT('',#421);
#107=VERTEX_POINT('',#423);
#108=VERTEX_POINT('',#425);
#109=VERTEX_POINT('',#430);
#110=VERTEX_POINT('',#434);
#111=VERTEX_POINT('',#438);
#112=VERTEX_POINT('',#440);
#113=VERTEX_POINT('',#442);
#114=VERTEX_POINT('',#446);
#115=VERTEX_POINT('',#450);
#116=VERTEX_POINT('',#454);
#117=VERTEX_POINT('',#458);
#118=VERTEX_POINT('',#462);
#119=EDGE_CURVE('',#100,#101,#76,.T.);
#120=EDGE_CURVE('',#100,#102,#62,.T.);
#121=EDGE_CURVE('',#102,#102,#77,.T.);
#122=EDGE_CURVE('',#101,#100,#78,.T.);
#123=EDGE_CURVE('',#103,#104,#79,.T.);
#124=EDGE_CURVE('',#104,#103,#80,.T.);
#125=EDGE_CURVE('',#104,#101,#63,.T.);
#126=EDGE_CURVE('',#103,#105,#64,.T.);
#127=EDGE_CURVE('',#105,#105,#81,.T.);
#128=EDGE_CURVE('',#106,#106,#82,.T.);
#129=EDGE_CURVE('',#106,#107,#83,.T.);
#130=EDGE_CURVE('',#107,#108,#84,.T.);
#131=EDGE_CURVE('',#108,#107,#85,.T.);
#132=EDGE_CURVE('',#108,#109,#65,.T.);
#133=EDGE_CURVE('',#109,#109,#86,.T.);
#134=EDGE_CURVE('',#109,#110,#87,.T.);
#135=EDGE_CURVE('',#110,#110,#88,.T.);
#136=EDGE_CURVE('',#111,#111,#89,.T.);
#137=EDGE_CURVE('',#111,#112,#66,.T.);
#138=EDGE_CURVE('',#112,#113,#90,.T.);
#139=EDGE_CURVE('',#113,#112,#91,.T.);
#140=EDGE_CURVE('',#114,#114,#92,.T.);
#141=EDGE_CURVE('',#114,#111,#67,.T.);
#142=EDGE_CURVE('',#115,#115,#93,.T.);
#143=EDGE_CURVE('',#115,#114,#94,.T.);
#144=EDGE_CURVE('',#113,#116,#95,.T.);
#145=EDGE_CURVE('',#116,#116,#96,.T.);
#146=EDGE_CURVE('',#110,#117,#68,.T.);
#147=EDGE_CURVE('',#117,#117,#97,.T.);
#148=EDGE_CURVE('',#118,#118,#98,.T.);
#149=EDGE_CURVE('',#117,#118,#99,.T.);
#150=ORIENTED_EDGE('',*,*,#119,.F.);
#151=ORIENTED_EDGE('',*,*,#120,.T.);
#152=ORIENTED_EDGE('',*,*,#121,.T.);
#153=ORIENTED_EDGE('',*,*,#120,.F.);
#154=ORIENTED_EDGE('',*,*,#122,.F.);
#155=ORIENTED_EDGE('',*,*,#123,.F.);
#156=ORIENTED_EDGE('',*,*,#124,.F.);
#157=ORIENTED_EDGE('',*,*,#125,.T.);
#158=ORIENTED_EDGE('',*,*,#122,.T.);
#159=ORIENTED_EDGE('',*,*,#119,.T.);
#160=ORIENTED_EDGE('',*,*,#125,.F.);
#161=ORIENTED_EDGE('',*,*,#123,.T.);
#162=ORIENTED_EDGE('',*,*,#124,.T.);
#163=ORIENTED_EDGE('',*,*,#126,.T.);
#164=ORIENTED_EDGE('',*,*,#127,.F.);
#165=ORIENTED_EDGE('',*,*,#126,.F.);
#166=ORIENTED_EDGE('',*,*,#128,.F.);
#167=ORIENTED_EDGE('',*,*,#129,.T.);
#168=ORIENTED_EDGE('',*,*,#130,.T.);
#169=ORIENTED_EDGE('',*,*,#131,.T.);
#170=ORIENTED_EDGE('',*,*,#129,.F.);
#171=ORIENTED_EDGE('',*,*,#128,.T.);
#172=ORIENTED_EDGE('',*,*,#131,.F.);
#173=ORIENTED_EDGE('',*,*,#132,.T.);
#174=ORIENTED_EDGE('',*,*,#133,.T.);
#175=ORIENTED_EDGE('',*,*,#132,.F.);
#176=ORIENTED_EDGE('',*,*,#130,.F.);
#177=ORIENTED_EDGE('',*,*,#133,.F.);
#178=ORIENTED_EDGE('',*,*,#134,.T.);
#179=ORIENTED_EDGE('',*,*,#135,.T.);
#180=ORIENTED_EDGE('',*,*,#134,.F.);
#181=ORIENTED_EDGE('',*,*,#136,.F.);
#182=ORIENTED_EDGE('',*,*,#137,.T.);
#183=ORIENTED_EDGE('',*,*,#138,.T.);
#184=ORIENTED_EDGE('',*,*,#139,.T.);
#185=ORIENTED_EDGE('',*,*,#137,.F.);
#186=ORIENTED_EDGE('',*,*,#140,.F.);
#187=ORIENTED_EDGE('',*,*,#141,.T.);
#188=ORIENTED_EDGE('',*,*,#136,.T.);
#189=ORIENTED_EDGE('',*,*,#141,.F.);
#190=ORIENTED_EDGE('',*,*,#142,.F.);
#191=ORIENTED_EDGE('',*,*,#143,.T.);
#192=ORIENTED_EDGE('',*,*,#140,.T.);
#193=ORIENTED_EDGE('',*,*,#143,.F.);
#194=ORIENTED_EDGE('',*,*,#138,.F.);
#195=ORIENTED_EDGE('',*,*,#139,.F.);
#196=ORIENTED_EDGE('',*,*,#144,.T.);
#197=ORIENTED_EDGE('',*,*,#145,.T.);
#198=ORIENTED_EDGE('',*,*,#144,.F.);
#199=ORIENTED_EDGE('',*,*,#135,.F.);
#200=ORIENTED_EDGE('',*,*,#146,.T.);
#201=ORIENTED_EDGE('',*,*,#147,.T.);
#202=ORIENTED_EDGE('',*,*,#146,.F.);
#203=ORIENTED_EDGE('',*,*,#148,.F.);
#204=ORIENTED_EDGE('',*,*,#127,.T.);
#205=ORIENTED_EDGE('',*,*,#142,.T.);
#206=ORIENTED_EDGE('',*,*,#121,.F.);
#207=ORIENTED_EDGE('',*,*,#145,.F.);
#208=ORIENTED_EDGE('',*,*,#147,.F.);
#209=ORIENTED_EDGE('',*,*,#149,.T.);
#210=ORIENTED_EDGE('',*,*,#148,.T.);
#211=ORIENTED_EDGE('',*,*,#149,.F.);
#212=CONICAL_SURFACE('',#272,1.,0.785398163397);
#213=CONICAL_SURFACE('',#279,1.,0.785398163397);
#214=CONICAL_SURFACE('',#296,28.85,0.698131700798);
#215=CONICAL_SURFACE('',#304,27.9018666706,0.698131700798);
#216=STYLED_ITEM('',(#487),#233);
#217=STYLED_ITEM('',(#487),#234);
#218=STYLED_ITEM('',(#487),#235);
#219=STYLED_ITEM('',(#487),#236);
#220=STYLED_ITEM('',(#487),#237);
#221=STYLED_ITEM('',(#487),#238);
#222=STYLED_ITEM('',(#487),#239);
#223=STYLED_ITEM('',(#487),#240);
#224=STYLED_ITEM('',(#487),#241);
#225=STYLED_ITEM('',(#487),#242);
#226=STYLED_ITEM('',(#487),#243);
#227=STYLED_ITEM('',(#487),#244);
#228=STYLED_ITEM('',(#487),#245);
#229=STYLED_ITEM('',(#487),#246);
#230=STYLED_ITEM('',(#487),#247);
#231=STYLED_ITEM('',(#487),#248);
#232=STYLED_ITEM('',(#487),#13);
#233=ADVANCED_FACE('',(#28),#212,.F.);
#234=ADVANCED_FACE('',(#29),#25,.F.);
#235=ADVANCED_FACE('',(#30),#213,.F.);
#236=ADVANCED_FACE('',(#31),#20,.F.);
#237=ADVANCED_FACE('',(#32),#16,.T.);
#238=ADVANCED_FACE('',(#33),#26,.F.);
#239=ADVANCED_FACE('',(#34),#21,.T.);
#240=ADVANCED_FACE('',(#35),#27,.T.);
#241=ADVANCED_FACE('',(#36),#214,.T.);
#242=ADVANCED_FACE('',(#37),#22,.T.);
#243=ADVANCED_FACE('',(#38),#23,.T.);
#244=ADVANCED_FACE('',(#39),#215,.F.);
#245=ADVANCED_FACE('',(#40,#14),#17,.F.);
#246=ADVANCED_FACE('',(#41,#15),#18,.T.);
#247=ADVANCED_FACE('',(#42),#19,.F.);
#248=ADVANCED_FACE('',(#43),#24,.F.);
#249=CLOSED_SHELL('',(#233,#234,#235,#236,#237,#238,#239,#240,#241,#242,
#243,#244,#245,#246,#247,#248));
#250=DERIVED_UNIT_ELEMENT(#253,1.);
#251=DERIVED_UNIT_ELEMENT(#473,-3.);
#252=DIMENSIONAL_EXPONENTS(0.,1.,0.,0.,0.,0.,0.);
#253=(
CONVERSION_BASED_UNIT('gram',#255)
MASS_UNIT()
NAMED_UNIT(#252)
);
#254=(
MASS_UNIT()
NAMED_UNIT(*)
SI_UNIT(.KILO.,.GRAM.)
);
#255=MASS_MEASURE_WITH_UNIT(MASS_MEASURE(0.001),#254);
#256=DERIVED_UNIT((#250,#251));
#257=MEASURE_REPRESENTATION_ITEM('density measure',
POSITIVE_RATIO_MEASURE(8.),#256);
#258=PROPERTY_DEFINITION_REPRESENTATION(#263,#260);
#259=PROPERTY_DEFINITION_REPRESENTATION(#264,#261);
#260=REPRESENTATION('material name',(#262),#470);
#261=REPRESENTATION('density',(#257),#470);
#262=DESCRIPTIVE_REPRESENTATION_ITEM('Edelstahl','Edelstahl');
#263=PROPERTY_DEFINITION('material property','material name',#480);
#264=PROPERTY_DEFINITION('material property','density of part',#480);
#265=DATE_TIME_ROLE('creation_date');
#266=APPLIED_DATE_AND_TIME_ASSIGNMENT(#267,#265,(#480));
#267=DATE_AND_TIME(#268,#269);
#268=CALENDAR_DATE(2023,8,9);
#269=LOCAL_TIME(0,0,0.,#270);
#270=COORDINATED_UNIVERSAL_TIME_OFFSET(0,0,.BEHIND.);
#271=AXIS2_PLACEMENT_3D('',#401,#312,#313);
#272=AXIS2_PLACEMENT_3D('',#402,#314,#315);
#273=AXIS2_PLACEMENT_3D('',#405,#316,#317);
#274=AXIS2_PLACEMENT_3D('',#408,#319,#320);
#275=AXIS2_PLACEMENT_3D('',#409,#321,#322);
#276=AXIS2_PLACEMENT_3D('',#410,#323,#324);
#277=AXIS2_PLACEMENT_3D('',#413,#325,#326);
#278=AXIS2_PLACEMENT_3D('',#414,#327,#328);
#279=AXIS2_PLACEMENT_3D('',#416,#330,#331);
#280=AXIS2_PLACEMENT_3D('',#419,#333,#334);
#281=AXIS2_PLACEMENT_3D('',#420,#335,#336);
#282=AXIS2_PLACEMENT_3D('',#422,#337,#338);
#283=AXIS2_PLACEMENT_3D('',#424,#339,#340);
#284=AXIS2_PLACEMENT_3D('',#426,#341,#342);
#285=AXIS2_PLACEMENT_3D('',#427,#343,#344);
#286=AXIS2_PLACEMENT_3D('',#428,#345,#346);
#287=AXIS2_PLACEMENT_3D('',#429,#347,#348);
#288=AXIS2_PLACEMENT_3D('',#432,#350,#351);
#289=AXIS2_PLACEMENT_3D('',#433,#352,#353);
#290=AXIS2_PLACEMENT_3D('',#435,#354,#355);
#291=AXIS2_PLACEMENT_3D('',#436,#356,#357);
#292=AXIS2_PLACEMENT_3D('',#437,#358,#359);
#293=AXIS2_PLACEMENT_3D('',#439,#360,#361);
#294=AXIS2_PLACEMENT_3D('',#443,#363,#364);
#295=AXIS2_PLACEMENT_3D('',#444,#365,#366);
#296=AXIS2_PLACEMENT_3D('',#445,#367,#368);
#297=AXIS2_PLACEMENT_3D('',#447,#369,#370);
#298=AXIS2_PLACEMENT_3D('',#449,#372,#373);
#299=AXIS2_PLACEMENT_3D('',#451,#374,#375);
#300=AXIS2_PLACEMENT_3D('',#452,#376,#377);
#301=AXIS2_PLACEMENT_3D('',#453,#378,#379);
#302=AXIS2_PLACEMENT_3D('',#455,#380,#381);
#303=AXIS2_PLACEMENT_3D('',#456,#382,#383);
#304=AXIS2_PLACEMENT_3D('',#457,#384,#385);
#305=AXIS2_PLACEMENT_3D('',#460,#387,#388);
#306=AXIS2_PLACEMENT_3D('',#461,#389,#390);
#307=AXIS2_PLACEMENT_3D('',#463,#391,#392);
#308=AXIS2_PLACEMENT_3D('',#464,#393,#394);
#309=AXIS2_PLACEMENT_3D('',#465,#395,#396);
#310=AXIS2_PLACEMENT_3D('',#466,#397,#398);
#311=AXIS2_PLACEMENT_3D('',#467,#399,#400);
#312=DIRECTION('axis',(0.,0.,1.));
#313=DIRECTION('refdir',(1.,0.,0.));
#314=DIRECTION('center_axis',(-1.,-2.22044604925E-14,-2.6645352591E-14));
#315=DIRECTION('ref_axis',(6.92089122583277E-15,-0.880513815068903,0.474020486342948));
#316=DIRECTION('center_axis',(-1.,-7.3094505983E-15,-1.33798595726E-14));
#317=DIRECTION('ref_axis',(-7.3094505983E-15,1.,0.));
#318=DIRECTION('',(-0.707106781186869,0.622617289563365,-0.335183100314313));
#319=DIRECTION('center_axis',(-1.,-1.61105201556E-14,-2.99259968158E-14));
#320=DIRECTION('ref_axis',(-1.61105201556E-14,1.,0.));
#321=DIRECTION('center_axis',(-1.,-7.3094505983E-15,-1.33798595726E-14));
#322=DIRECTION('ref_axis',(-7.3094505983E-15,1.,0.));
#323=DIRECTION('center_axis',(-1.,0.,0.));
#324=DIRECTION('ref_axis',(0.,0.877582561890372,-0.479425538604204));
#325=DIRECTION('center_axis',(-1.,0.,0.));
#326=DIRECTION('ref_axis',(0.,1.,0.));
#327=DIRECTION('center_axis',(-1.,0.,0.));
#328=DIRECTION('ref_axis',(0.,1.,0.));
#329=DIRECTION('',(-1.,0.,0.));
#330=DIRECTION('center_axis',(1.,-2.22044604925E-15,8.881784197E-15));
#331=DIRECTION('ref_axis',(-6.16528108663484E-15,-0.880513815068903,0.474020486342948));
#332=DIRECTION('',(0.707106781186869,0.622617289563379,-0.335183100314287));
#333=DIRECTION('center_axis',(-1.,3.22651488316E-15,5.90609587754E-15));
#334=DIRECTION('ref_axis',(3.22651488316E-15,1.,0.));
#335=DIRECTION('center_axis',(-1.,0.,0.));
#336=DIRECTION('ref_axis',(0.,0.479425538604204,0.877582561890372));
#337=DIRECTION('center_axis',(-1.,0.,0.));
#338=DIRECTION('ref_axis',(0.,1.,0.));
#339=DIRECTION('center_axis',(0.,0.877582561890372,-0.479425538604204));
#340=DIRECTION('ref_axis',(0.,-0.479425538604204,-0.877582561890372));
#341=DIRECTION('center_axis',(-1.,0.,0.));
#342=DIRECTION('ref_axis',(0.,1.,0.));
#343=DIRECTION('center_axis',(-1.,0.,0.));
#344=DIRECTION('ref_axis',(0.,1.,0.));
#345=DIRECTION('center_axis',(-1.,0.,0.));
#346=DIRECTION('ref_axis',(0.,1.,0.));
#347=DIRECTION('center_axis',(-1.,0.,0.));
#348=DIRECTION('ref_axis',(0.,0.877582561890372,-0.479425538604204));
#349=DIRECTION('',(-1.,0.,0.));
#350=DIRECTION('center_axis',(-1.,0.,0.));
#351=DIRECTION('ref_axis',(0.,1.,0.));
#352=DIRECTION('center_axis',(-1.,0.,0.));
#353=DIRECTION('ref_axis',(0.,0.877582561890373,-0.479425538604204));
#354=DIRECTION('center_axis',(0.,0.479425538604204,0.877582561890372));
#355=DIRECTION('ref_axis',(0.,-0.877582561890372,0.479425538604204));
#356=DIRECTION('center_axis',(-1.,0.,0.));
#357=DIRECTION('ref_axis',(0.,1.,0.));
#358=DIRECTION('center_axis',(-1.,0.,0.));
#359=DIRECTION('ref_axis',(0.,0.877582561890373,-0.479425538604203));
#360=DIRECTION('center_axis',(-1.,0.,0.));
#361=DIRECTION('ref_axis',(0.,1.,0.));
#362=DIRECTION('',(1.,0.,0.));
#363=DIRECTION('center_axis',(-1.,0.,0.));
#364=DIRECTION('ref_axis',(0.,1.,0.));
#365=DIRECTION('center_axis',(-1.,0.,0.));
#366=DIRECTION('ref_axis',(0.,1.,0.));
#367=DIRECTION('center_axis',(-1.,0.,0.));
#368=DIRECTION('ref_axis',(0.,0.877582561890373,-0.479425538604203));
#369=DIRECTION('center_axis',(-1.,0.,0.));
#370=DIRECTION('ref_axis',(0.,1.,0.));
#371=DIRECTION('',(0.766044443118806,0.564099197260282,-0.308168795982176));
#372=DIRECTION('center_axis',(-1.,0.,0.));
#373=DIRECTION('ref_axis',(0.,0.877582561890373,-0.479425538604204));
#374=DIRECTION('center_axis',(-1.,0.,0.));
#375=DIRECTION('ref_axis',(0.,1.,0.));
#376=DIRECTION('center_axis',(0.,0.479425538604204,0.877582561890372));
#377=DIRECTION('ref_axis',(0.,-0.877582561890372,0.479425538604204));
#378=DIRECTION('center_axis',(-1.,0.,0.));
#379=DIRECTION('ref_axis',(0.,0.479425538604204,0.877582561890372));
#380=DIRECTION('center_axis',(0.,-0.877582561890372,0.479425538604204));
#381=DIRECTION('ref_axis',(0.,-0.479425538604204,-0.877582561890372));
#382=DIRECTION('center_axis',(-1.,0.,0.));
#383=DIRECTION('ref_axis',(0.,1.,0.));
#384=DIRECTION('center_axis',(-1.,0.,0.));
#385=DIRECTION('ref_axis',(0.,0.877582561890373,-0.479425538604204));
#386=DIRECTION('',(-0.766044443118806,-0.564099197260282,0.308168795982176));
#387=DIRECTION('center_axis',(-1.,0.,0.));
#388=DIRECTION('ref_axis',(0.,1.,0.));
#389=DIRECTION('center_axis',(-1.,0.,0.));
#390=DIRECTION('ref_axis',(0.,1.,0.));
#391=DIRECTION('center_axis',(-1.,0.,0.));
#392=DIRECTION('ref_axis',(0.,1.,0.));
#393=DIRECTION('center_axis',(-1.,0.,0.));
#394=DIRECTION('ref_axis',(0.,1.,0.));
#395=DIRECTION('center_axis',(-1.,0.,0.));
#396=DIRECTION('ref_axis',(0.,1.,0.));
#397=DIRECTION('center_axis',(-1.,0.,0.));
#398=DIRECTION('ref_axis',(0.,0.877582561890372,-0.479425538604204));
#399=DIRECTION('center_axis',(0.,-0.479425538604204,-0.877582561890372));
#400=DIRECTION('ref_axis',(0.,-0.877582561890372,0.479425538604204));
#401=CARTESIAN_POINT('',(0.,0.,0.));
#402=CARTESIAN_POINT('Origin',(-11.1000000000009,5.8753002463148E-13,7.06101843661976E-13));
#403=CARTESIAN_POINT('',(-37.6000000000122,24.2141299143837,-13.0355633744251));
#404=CARTESIAN_POINT('',(-37.6000000000004,-24.1335204519852,13.1842023116156));
#405=CARTESIAN_POINT('Origin',(-37.6,-8.88178419696E-16,-3.5527136788E-15));
#406=CARTESIAN_POINT('',(-38.0000000000129,24.5663354404116,-13.2251715689624));
#407=CARTESIAN_POINT('',(-11.1000000000009,0.880513815069491,-0.474020486342242));
#408=CARTESIAN_POINT('Origin',(-38.0000000000002,-9.76996261671E-15,-1.06581410364E-14));
#409=CARTESIAN_POINT('Origin',(-37.6,-8.88178419696E-16,-3.5527136788E-15));
#410=CARTESIAN_POINT('Origin',(-2.175,0.,0.));
#411=CARTESIAN_POINT('',(-36.8999999999876,24.2141299143839,-13.0355633744252));
#412=CARTESIAN_POINT('',(-36.9,-24.1335204519852,13.1842023116156));
#413=CARTESIAN_POINT('Origin',(-36.9,0.,0.));
#414=CARTESIAN_POINT('Origin',(-36.9,0.,0.));
#415=CARTESIAN_POINT('',(-2.175,-24.1335204519852,13.1842023116156));
#416=CARTESIAN_POINT('Origin',(-63.3999999999991,5.8841820305148E-14,-2.35367281220992E-13));
#417=CARTESIAN_POINT('',(-36.4999999999871,24.5663354404116,-13.2251715689624));
#418=CARTESIAN_POINT('',(-63.3999999999991,0.880513815068962,-0.474020486343183));
#419=CARTESIAN_POINT('Origin',(-36.5,2.6645352591E-15,-3.5527136788E-15));
#420=CARTESIAN_POINT('Origin',(-3.,0.,0.));
#421=CARTESIAN_POINT('',(-2.,-12.5609491114,-22.9926631215));
#422=CARTESIAN_POINT('Origin',(-2.,0.,0.));
#423=CARTESIAN_POINT('',(-3.,-13.0403746500343,-23.8702456834181));
#424=CARTESIAN_POINT('Origin',(-3.,-12.5609491114301,-22.9926631215278));
#425=CARTESIAN_POINT('',(-3.,-23.8702456834,13.04037465));
#426=CARTESIAN_POINT('Origin',(-3.,0.,0.));
#427=CARTESIAN_POINT('Origin',(-3.,0.,0.));
#428=CARTESIAN_POINT('Origin',(-2.,0.,26.2));
#429=CARTESIAN_POINT('Origin',(-2.175,0.,0.));
#430=CARTESIAN_POINT('',(-28.03230981755,-23.8702456834,13.04037465));
#431=CARTESIAN_POINT('',(-2.175,-23.8702456834181,13.0403746500343));
#432=CARTESIAN_POINT('Origin',(-28.03230981755,0.,0.));
#433=CARTESIAN_POINT('Origin',(-28.03230981755,0.,0.));
#434=CARTESIAN_POINT('',(-29.96067264661,-24.4861916343087,13.3768674566151));
#435=CARTESIAN_POINT('Origin',(-28.03230981755,-26.5029933690892,14.4786512658469));
#436=CARTESIAN_POINT('Origin',(-29.96067264661,0.,0.));
#437=CARTESIAN_POINT('Origin',(-2.175,0.,0.));
#438=CARTESIAN_POINT('',(-28.75702820784,-25.3182569105,13.8314267887));
#439=CARTESIAN_POINT('Origin',(-28.75702820784,0.,0.));
#440=CARTESIAN_POINT('',(-3.,-25.3182569105,13.8314267887));
#441=CARTESIAN_POINT('',(-2.175,-25.3182569105373,13.8314267887313));
#442=CARTESIAN_POINT('',(-3.,-13.8314267887313,-25.3182569105372));
#443=CARTESIAN_POINT('Origin',(-3.,0.,0.));
#444=CARTESIAN_POINT('Origin',(-3.,0.,0.));
#445=CARTESIAN_POINT('Origin',(-28.75702820784,0.,0.));
#446=CARTESIAN_POINT('',(-32.2502433660899,-27.8905879082058,15.23669761746));
#447=CARTESIAN_POINT('Origin',(-32.2502433661,0.,0.));
#448=CARTESIAN_POINT('',(-28.75702820784,-25.3182569105373,13.8314267887313));
#449=CARTESIAN_POINT('Origin',(-34.5,0.,0.));
#450=CARTESIAN_POINT('',(-38.,-25.5376525510098,13.9512831733823));
#451=CARTESIAN_POINT('Origin',(-38.,0.,0.));
#452=CARTESIAN_POINT('Origin',(-34.5,-25.5376525510098,13.9512831733823));
#453=CARTESIAN_POINT('Origin',(-3.,0.,0.));
#454=CARTESIAN_POINT('',(0.,-12.3931501729,-22.6855092249));
#455=CARTESIAN_POINT('Origin',(-3.,-12.3931501729187,-22.6855092248661));
#456=CARTESIAN_POINT('Origin',(0.,0.,0.));
#457=CARTESIAN_POINT('Origin',(-29.96067264661,0.,0.));
#458=CARTESIAN_POINT('',(-33.21442478063,-26.8821870408,14.6858057129));
#459=CARTESIAN_POINT('',(-29.96067264661,-24.4861916343087,13.3768674566151));
#460=CARTESIAN_POINT('Origin',(-33.21442478063,0.,0.));
#461=CARTESIAN_POINT('Origin',(-36.5,27.5,0.));
#462=CARTESIAN_POINT('',(-36.5,-25.5376525510098,13.9512831733823));
#463=CARTESIAN_POINT('Origin',(-36.5,0.,0.));
#464=CARTESIAN_POINT('Origin',(-38.,27.5,0.));
#465=CARTESIAN_POINT('Origin',(0.,0.,25.85));
#466=CARTESIAN_POINT('Origin',(-34.5,0.,0.));
#467=CARTESIAN_POINT('Origin',(-34.5,-25.5376525510098,13.9512831733823));
#468=UNCERTAINTY_MEASURE_WITH_UNIT(LENGTH_MEASURE(0.01),#472,
'DISTANCE_ACCURACY_VALUE',
'Maximum model space distance between geometric entities at asserted c
onnectivities');
#469=UNCERTAINTY_MEASURE_WITH_UNIT(LENGTH_MEASURE(0.01),#472,
'DISTANCE_ACCURACY_VALUE',
'Maximum model space distance between geometric entities at asserted c
onnectivities');
#470=(
GEOMETRIC_REPRESENTATION_CONTEXT(3)
GLOBAL_UNCERTAINTY_ASSIGNED_CONTEXT((#468))
GLOBAL_UNIT_ASSIGNED_CONTEXT((#472,#474,#475))
REPRESENTATION_CONTEXT('','3D')
);
#471=(
GEOMETRIC_REPRESENTATION_CONTEXT(3)
GLOBAL_UNCERTAINTY_ASSIGNED_CONTEXT((#469))
GLOBAL_UNIT_ASSIGNED_CONTEXT((#472,#474,#475))
REPRESENTATION_CONTEXT('','3D')
);
#472=(
LENGTH_UNIT()
NAMED_UNIT(*)
SI_UNIT(.MILLI.,.METRE.)
);
#473=(
LENGTH_UNIT()
NAMED_UNIT(*)
SI_UNIT(.CENTI.,.METRE.)
);
#474=(
NAMED_UNIT(*)
PLANE_ANGLE_UNIT()
SI_UNIT($,.RADIAN.)
);
#475=(
NAMED_UNIT(*)
SI_UNIT($,.STERADIAN.)
SOLID_ANGLE_UNIT()
);
#476=SHAPE_DEFINITION_REPRESENTATION(#477,#478);
#477=PRODUCT_DEFINITION_SHAPE('',$,#480);
#478=SHAPE_REPRESENTATION('',(#271),#470);
#479=PRODUCT_DEFINITION_CONTEXT('part definition',#484,'design');
#480=PRODUCT_DEFINITION('tmpA637.tmp','tmpA637.tmp',#481,#479);
#481=PRODUCT_DEFINITION_FORMATION('',$,#486);
#482=PRODUCT_RELATED_PRODUCT_CATEGORY('tmpA637.tmp','tmpA637.tmp',(#486));
#483=APPLICATION_PROTOCOL_DEFINITION('international standard',
'automotive_design',2009,#484);
#484=APPLICATION_CONTEXT(
'Core Data for Automotive Mechanical Design Process');
#485=PRODUCT_CONTEXT('part definition',#484,'mechanical');
#486=PRODUCT('tmpA637.tmp','tmpA637.tmp',$,(#485));
#487=PRESENTATION_STYLE_ASSIGNMENT((#488));
#488=SURFACE_STYLE_USAGE(.BOTH.,#491);
#489=SURFACE_STYLE_RENDERING_WITH_PROPERTIES($,#495,(#490));
#490=SURFACE_STYLE_TRANSPARENT(0.);
#491=SURFACE_SIDE_STYLE('',(#492,#489));
#492=SURFACE_STYLE_FILL_AREA(#493);
#493=FILL_AREA_STYLE('',(#494));
#494=FILL_AREA_STYLE_COLOUR('',#495);
#495=COLOUR_RGB('',0.745098039215686,0.737254901960784,0.729411764705882);
ENDSEC;
END-ISO-10303-21;
