ISO-10303-21;
HEADER;
/* Generated by software containing ST-Developer
 * from STEP Tools, Inc. (www.steptools.com) 
 */

FILE_DESCRIPTION(
/* description */ (''),
/* implementation_level */ '2;1');

FILE_NAME(
/* name */ '43217.stp',
/* time_stamp */ '2023-09-08T11:23:24+02:00',
/* author */ ('JANAN'),
/* organization */ (''),
/* preprocessor_version */ 'ST-DEVELOPER v19.2',
/* originating_system */ 'Autodesk Inventor 2023',
/* authorisation */ '');

FILE_SCHEMA (('AUTOMOTIVE_DESIGN { 1 0 10303 214 3 1 1 }'));
ENDSEC;

DATA;
#10=MECHANICAL_DESIGN_GEOMETRIC_PRESENTATION_REPRESENTATION('',(#216,#217,
#218,#219,#220,#221,#222,#223,#224,#225,#226,#227,#228,#229,#230,#231,#232),
#471);
#11=SHAPE_REPRESENTATION_RELATIONSHIP('SRR','None',#478,#12);
#12=ADVANCED_BREP_SHAPE_REPRESENTATION('',(#13),#470);
#13=MANIFOLD_SOLID_BREP('Volumenk\X\F6rper1',#249);
#14=FACE_BOUND('',#55,.T.);
#15=FACE_BOUND('',#57,.T.);
#16=CONICAL_SURFACE('',#284,1.,0.785398163397);
#17=CONICAL_SURFACE('',#291,1.,0.785398163397);
#18=CONICAL_SURFACE('',#293,22.7,0.750491578358);
#19=CONICAL_SURFACE('',#301,21.9559388951,0.750491578358);
#20=PLANE('',#280);
#21=PLANE('',#298);
#22=PLANE('',#300);
#23=PLANE('',#311);
#24=TOROIDAL_SURFACE('',#276,20.2,1.);
#25=TOROIDAL_SURFACE('',#295,23.05,3.5);
#26=TOROIDAL_SURFACE('',#304,19.9,2.8);
#27=TOROIDAL_SURFACE('',#307,24.15,3.);
#28=TOROIDAL_SURFACE('',#309,23.05,2.);
#29=FACE_OUTER_BOUND('',#45,.T.);
#30=FACE_OUTER_BOUND('',#46,.T.);
#31=FACE_OUTER_BOUND('',#47,.T.);
#32=FACE_OUTER_BOUND('',#48,.T.);
#33=FACE_OUTER_BOUND('',#49,.T.);
#34=FACE_OUTER_BOUND('',#50,.T.);
#35=FACE_OUTER_BOUND('',#51,.T.);
#36=FACE_OUTER_BOUND('',#52,.T.);
#37=FACE_OUTER_BOUND('',#53,.T.);
#38=FACE_OUTER_BOUND('',#54,.T.);
#39=FACE_OUTER_BOUND('',#56,.T.);
#40=FACE_OUTER_BOUND('',#58,.T.);
#41=FACE_OUTER_BOUND('',#59,.T.);
#42=FACE_OUTER_BOUND('',#60,.T.);
#43=FACE_OUTER_BOUND('',#61,.T.);
#44=FACE_OUTER_BOUND('',#62,.T.);
#45=EDGE_LOOP('',(#151,#152,#153,#154,#155));
#46=EDGE_LOOP('',(#156,#157,#158,#159));
#47=EDGE_LOOP('',(#160));
#48=EDGE_LOOP('',(#161,#162,#163,#164,#165));
#49=EDGE_LOOP('',(#166,#167,#168,#169,#170));
#50=EDGE_LOOP('',(#171,#172,#173,#174,#175,#176));
#51=EDGE_LOOP('',(#177,#178,#179,#180,#181));
#52=EDGE_LOOP('',(#182,#183,#184,#185));
#53=EDGE_LOOP('',(#186,#187,#188,#189));
#54=EDGE_LOOP('',(#190));
#55=EDGE_LOOP('',(#191));
#56=EDGE_LOOP('',(#192));
#57=EDGE_LOOP('',(#193));
#58=EDGE_LOOP('',(#194,#195,#196,#197));
#59=EDGE_LOOP('',(#198,#199,#200,#201,#202));
#60=EDGE_LOOP('',(#203,#204,#205,#206,#207));
#61=EDGE_LOOP('',(#208,#209,#210,#211));
#62=EDGE_LOOP('',(#212));
#63=LINE('',#406,#70);
#64=LINE('',#419,#71);
#65=LINE('',#428,#72);
#66=LINE('',#436,#73);
#67=LINE('',#439,#74);
#68=LINE('',#444,#75);
#69=LINE('',#457,#76);
#70=VECTOR('',#318,22.7);
#71=VECTOR('',#335,21.2);
#72=VECTOR('',#344,1.);
#73=VECTOR('',#355,21.65);
#74=VECTOR('',#358,1.);
#75=VECTOR('',#365,22.7);
#76=VECTOR('',#382,21.9559388951);
#77=CIRCLE('',#273,22.7);
#78=CIRCLE('',#274,22.7);
#79=CIRCLE('',#275,22.7);
#80=CIRCLE('',#277,20.2);
#81=CIRCLE('',#278,1.);
#82=CIRCLE('',#279,21.2);
#83=CIRCLE('',#282,21.2);
#84=CIRCLE('',#283,21.2);
#85=CIRCLE('',#285,21.65);
#86=CIRCLE('',#286,22.05);
#87=CIRCLE('',#287,21.65);
#88=CIRCLE('',#289,21.65);
#89=CIRCLE('',#290,21.65);
#90=CIRCLE('',#292,22.05);
#91=CIRCLE('',#294,25.6097379557);
#92=CIRCLE('',#296,23.05);
#93=CIRCLE('',#297,3.5);
#94=CIRCLE('',#299,23.05);
#95=CIRCLE('',#302,21.9559388951);
#96=CIRCLE('',#303,24.5127074032);
#97=CIRCLE('',#305,2.8);
#98=CIRCLE('',#306,19.9);
#99=CIRCLE('',#308,3.);
#100=CIRCLE('',#310,2.);
#101=VERTEX_POINT('',#403);
#102=VERTEX_POINT('',#405);
#103=VERTEX_POINT('',#407);
#104=VERTEX_POINT('',#411);
#105=VERTEX_POINT('',#413);
#106=VERTEX_POINT('',#418);
#107=VERTEX_POINT('',#420);
#108=VERTEX_POINT('',#424);
#109=VERTEX_POINT('',#425);
#110=VERTEX_POINT('',#427);
#111=VERTEX_POINT('',#432);
#112=VERTEX_POINT('',#433);
#113=VERTEX_POINT('',#438);
#114=VERTEX_POINT('',#442);
#115=VERTEX_POINT('',#446);
#116=VERTEX_POINT('',#450);
#117=VERTEX_POINT('',#454);
#118=VERTEX_POINT('',#456);
#119=VERTEX_POINT('',#460);
#120=EDGE_CURVE('',#101,#101,#77,.T.);
#121=EDGE_CURVE('',#101,#102,#63,.T.);
#122=EDGE_CURVE('',#102,#103,#78,.T.);
#123=EDGE_CURVE('',#103,#102,#79,.T.);
#124=EDGE_CURVE('',#104,#104,#80,.T.);
#125=EDGE_CURVE('',#104,#105,#81,.T.);
#126=EDGE_CURVE('',#105,#105,#82,.T.);
#127=EDGE_CURVE('',#105,#106,#64,.T.);
#128=EDGE_CURVE('',#107,#106,#83,.F.);
#129=EDGE_CURVE('',#106,#107,#84,.F.);
#130=EDGE_CURVE('',#108,#109,#85,.T.);
#131=EDGE_CURVE('',#108,#110,#65,.T.);
#132=EDGE_CURVE('',#110,#110,#86,.T.);
#133=EDGE_CURVE('',#109,#108,#87,.T.);
#134=EDGE_CURVE('',#111,#112,#88,.T.);
#135=EDGE_CURVE('',#112,#111,#89,.T.);
#136=EDGE_CURVE('',#112,#109,#66,.T.);
#137=EDGE_CURVE('',#111,#113,#67,.T.);
#138=EDGE_CURVE('',#113,#113,#90,.T.);
#139=EDGE_CURVE('',#114,#114,#91,.T.);
#140=EDGE_CURVE('',#114,#101,#68,.T.);
#141=EDGE_CURVE('',#115,#115,#92,.T.);
#142=EDGE_CURVE('',#115,#114,#93,.T.);
#143=EDGE_CURVE('',#116,#116,#94,.T.);
#144=EDGE_CURVE('',#117,#117,#95,.T.);
#145=EDGE_CURVE('',#117,#118,#69,.T.);
#146=EDGE_CURVE('',#118,#118,#96,.T.);
#147=EDGE_CURVE('',#103,#119,#97,.T.);
#148=EDGE_CURVE('',#119,#119,#98,.T.);
#149=EDGE_CURVE('',#107,#117,#99,.T.);
#150=EDGE_CURVE('',#118,#116,#100,.T.);
#151=ORIENTED_EDGE('',*,*,#120,.F.);
#152=ORIENTED_EDGE('',*,*,#121,.T.);
#153=ORIENTED_EDGE('',*,*,#122,.T.);
#154=ORIENTED_EDGE('',*,*,#123,.T.);
#155=ORIENTED_EDGE('',*,*,#121,.F.);
#156=ORIENTED_EDGE('',*,*,#124,.F.);
#157=ORIENTED_EDGE('',*,*,#125,.T.);
#158=ORIENTED_EDGE('',*,*,#126,.T.);
#159=ORIENTED_EDGE('',*,*,#125,.F.);
#160=ORIENTED_EDGE('',*,*,#124,.T.);
#161=ORIENTED_EDGE('',*,*,#126,.F.);
#162=ORIENTED_EDGE('',*,*,#127,.T.);
#163=ORIENTED_EDGE('',*,*,#128,.F.);
#164=ORIENTED_EDGE('',*,*,#129,.F.);
#165=ORIENTED_EDGE('',*,*,#127,.F.);
#166=ORIENTED_EDGE('',*,*,#130,.F.);
#167=ORIENTED_EDGE('',*,*,#131,.T.);
#168=ORIENTED_EDGE('',*,*,#132,.T.);
#169=ORIENTED_EDGE('',*,*,#131,.F.);
#170=ORIENTED_EDGE('',*,*,#133,.F.);
#171=ORIENTED_EDGE('',*,*,#134,.F.);
#172=ORIENTED_EDGE('',*,*,#135,.F.);
#173=ORIENTED_EDGE('',*,*,#136,.T.);
#174=ORIENTED_EDGE('',*,*,#133,.T.);
#175=ORIENTED_EDGE('',*,*,#130,.T.);
#176=ORIENTED_EDGE('',*,*,#136,.F.);
#177=ORIENTED_EDGE('',*,*,#134,.T.);
#178=ORIENTED_EDGE('',*,*,#135,.T.);
#179=ORIENTED_EDGE('',*,*,#137,.T.);
#180=ORIENTED_EDGE('',*,*,#138,.F.);
#181=ORIENTED_EDGE('',*,*,#137,.F.);
#182=ORIENTED_EDGE('',*,*,#139,.F.);
#183=ORIENTED_EDGE('',*,*,#140,.T.);
#184=ORIENTED_EDGE('',*,*,#120,.T.);
#185=ORIENTED_EDGE('',*,*,#140,.F.);
#186=ORIENTED_EDGE('',*,*,#141,.F.);
#187=ORIENTED_EDGE('',*,*,#142,.T.);
#188=ORIENTED_EDGE('',*,*,#139,.T.);
#189=ORIENTED_EDGE('',*,*,#142,.F.);
#190=ORIENTED_EDGE('',*,*,#143,.F.);
#191=ORIENTED_EDGE('',*,*,#138,.T.);
#192=ORIENTED_EDGE('',*,*,#141,.T.);
#193=ORIENTED_EDGE('',*,*,#132,.F.);
#194=ORIENTED_EDGE('',*,*,#144,.F.);
#195=ORIENTED_EDGE('',*,*,#145,.T.);
#196=ORIENTED_EDGE('',*,*,#146,.T.);
#197=ORIENTED_EDGE('',*,*,#145,.F.);
#198=ORIENTED_EDGE('',*,*,#122,.F.);
#199=ORIENTED_EDGE('',*,*,#123,.F.);
#200=ORIENTED_EDGE('',*,*,#147,.T.);
#201=ORIENTED_EDGE('',*,*,#148,.T.);
#202=ORIENTED_EDGE('',*,*,#147,.F.);
#203=ORIENTED_EDGE('',*,*,#129,.T.);
#204=ORIENTED_EDGE('',*,*,#149,.T.);
#205=ORIENTED_EDGE('',*,*,#144,.T.);
#206=ORIENTED_EDGE('',*,*,#149,.F.);
#207=ORIENTED_EDGE('',*,*,#128,.T.);
#208=ORIENTED_EDGE('',*,*,#146,.F.);
#209=ORIENTED_EDGE('',*,*,#150,.T.);
#210=ORIENTED_EDGE('',*,*,#143,.T.);
#211=ORIENTED_EDGE('',*,*,#150,.F.);
#212=ORIENTED_EDGE('',*,*,#148,.F.);
#213=CYLINDRICAL_SURFACE('',#272,22.7);
#214=CYLINDRICAL_SURFACE('',#281,21.2);
#215=CYLINDRICAL_SURFACE('',#288,21.65);
#216=STYLED_ITEM('',(#487),#233);
#217=STYLED_ITEM('',(#487),#234);
#218=STYLED_ITEM('',(#487),#235);
#219=STYLED_ITEM('',(#487),#236);
#220=STYLED_ITEM('',(#487),#237);
#221=STYLED_ITEM('',(#487),#238);
#222=STYLED_ITEM('',(#487),#239);
#223=STYLED_ITEM('',(#487),#240);
#224=STYLED_ITEM('',(#487),#241);
#225=STYLED_ITEM('',(#487),#242);
#226=STYLED_ITEM('',(#487),#243);
#227=STYLED_ITEM('',(#487),#244);
#228=STYLED_ITEM('',(#487),#245);
#229=STYLED_ITEM('',(#487),#246);
#230=STYLED_ITEM('',(#487),#247);
#231=STYLED_ITEM('',(#487),#248);
#232=STYLED_ITEM('',(#487),#13);
#233=ADVANCED_FACE('',(#29),#213,.T.);
#234=ADVANCED_FACE('',(#30),#24,.F.);
#235=ADVANCED_FACE('',(#31),#20,.T.);
#236=ADVANCED_FACE('',(#32),#214,.F.);
#237=ADVANCED_FACE('',(#33),#16,.F.);
#238=ADVANCED_FACE('',(#34),#215,.F.);
#239=ADVANCED_FACE('',(#35),#17,.F.);
#240=ADVANCED_FACE('',(#36),#18,.T.);
#241=ADVANCED_FACE('',(#37),#25,.T.);
#242=ADVANCED_FACE('',(#38,#14),#21,.F.);
#243=ADVANCED_FACE('',(#39,#15),#22,.T.);
#244=ADVANCED_FACE('',(#40),#19,.F.);
#245=ADVANCED_FACE('',(#41),#26,.T.);
#246=ADVANCED_FACE('',(#42),#27,.T.);
#247=ADVANCED_FACE('',(#43),#28,.F.);
#248=ADVANCED_FACE('',(#44),#23,.F.);
#249=CLOSED_SHELL('',(#233,#234,#235,#236,#237,#238,#239,#240,#241,#242,
#243,#244,#245,#246,#247,#248));
#250=DERIVED_UNIT_ELEMENT(#253,1.);
#251=DERIVED_UNIT_ELEMENT(#473,-3.);
#252=DIMENSIONAL_EXPONENTS(0.,1.,0.,0.,0.,0.,0.);
#253=(
CONVERSION_BASED_UNIT('gram',#255)
MASS_UNIT()
NAMED_UNIT(#252)
);
#254=(
MASS_UNIT()
NAMED_UNIT(*)
SI_UNIT(.KILO.,.GRAM.)
);
#255=MASS_MEASURE_WITH_UNIT(MASS_MEASURE(0.001),#254);
#256=DERIVED_UNIT((#250,#251));
#257=MEASURE_REPRESENTATION_ITEM('density measure',
POSITIVE_RATIO_MEASURE(8.),#256);
#258=PROPERTY_DEFINITION_REPRESENTATION(#263,#260);
#259=PROPERTY_DEFINITION_REPRESENTATION(#264,#261);
#260=REPRESENTATION('material name',(#262),#470);
#261=REPRESENTATION('density',(#257),#470);
#262=DESCRIPTIVE_REPRESENTATION_ITEM('Edelstahl','Edelstahl');
#263=PROPERTY_DEFINITION('material property','material name',#480);
#264=PROPERTY_DEFINITION('material property','density of part',#480);
#265=DATE_TIME_ROLE('creation_date');
#266=APPLIED_DATE_AND_TIME_ASSIGNMENT(#267,#265,(#480));
#267=DATE_AND_TIME(#268,#269);
#268=CALENDAR_DATE(2023,8,9);
#269=LOCAL_TIME(0,0,0.,#270);
#270=COORDINATED_UNIVERSAL_TIME_OFFSET(0,0,.BEHIND.);
#271=AXIS2_PLACEMENT_3D('',#401,#312,#313);
#272=AXIS2_PLACEMENT_3D('',#402,#314,#315);
#273=AXIS2_PLACEMENT_3D('',#404,#316,#317);
#274=AXIS2_PLACEMENT_3D('',#408,#319,#320);
#275=AXIS2_PLACEMENT_3D('',#409,#321,#322);
#276=AXIS2_PLACEMENT_3D('',#410,#323,#324);
#277=AXIS2_PLACEMENT_3D('',#412,#325,#326);
#278=AXIS2_PLACEMENT_3D('',#414,#327,#328);
#279=AXIS2_PLACEMENT_3D('',#415,#329,#330);
#280=AXIS2_PLACEMENT_3D('',#416,#331,#332);
#281=AXIS2_PLACEMENT_3D('',#417,#333,#334);
#282=AXIS2_PLACEMENT_3D('',#421,#336,#337);
#283=AXIS2_PLACEMENT_3D('',#422,#338,#339);
#284=AXIS2_PLACEMENT_3D('',#423,#340,#341);
#285=AXIS2_PLACEMENT_3D('',#426,#342,#343);
#286=AXIS2_PLACEMENT_3D('',#429,#345,#346);
#287=AXIS2_PLACEMENT_3D('',#430,#347,#348);
#288=AXIS2_PLACEMENT_3D('',#431,#349,#350);
#289=AXIS2_PLACEMENT_3D('',#434,#351,#352);
#290=AXIS2_PLACEMENT_3D('',#435,#353,#354);
#291=AXIS2_PLACEMENT_3D('',#437,#356,#357);
#292=AXIS2_PLACEMENT_3D('',#440,#359,#360);
#293=AXIS2_PLACEMENT_3D('',#441,#361,#362);
#294=AXIS2_PLACEMENT_3D('',#443,#363,#364);
#295=AXIS2_PLACEMENT_3D('',#445,#366,#367);
#296=AXIS2_PLACEMENT_3D('',#447,#368,#369);
#297=AXIS2_PLACEMENT_3D('',#448,#370,#371);
#298=AXIS2_PLACEMENT_3D('',#449,#372,#373);
#299=AXIS2_PLACEMENT_3D('',#451,#374,#375);
#300=AXIS2_PLACEMENT_3D('',#452,#376,#377);
#301=AXIS2_PLACEMENT_3D('',#453,#378,#379);
#302=AXIS2_PLACEMENT_3D('',#455,#380,#381);
#303=AXIS2_PLACEMENT_3D('',#458,#383,#384);
#304=AXIS2_PLACEMENT_3D('',#459,#385,#386);
#305=AXIS2_PLACEMENT_3D('',#461,#387,#388);
#306=AXIS2_PLACEMENT_3D('',#462,#389,#390);
#307=AXIS2_PLACEMENT_3D('',#463,#391,#392);
#308=AXIS2_PLACEMENT_3D('',#464,#393,#394);
#309=AXIS2_PLACEMENT_3D('',#465,#395,#396);
#310=AXIS2_PLACEMENT_3D('',#466,#397,#398);
#311=AXIS2_PLACEMENT_3D('',#467,#399,#400);
#312=DIRECTION('axis',(0.,0.,1.));
#313=DIRECTION('refdir',(1.,0.,0.));
#314=DIRECTION('center_axis',(-1.,0.,0.));
#315=DIRECTION('ref_axis',(0.,0.877582561890372,-0.479425538604204));
#316=DIRECTION('center_axis',(-1.,0.,0.));
#317=DIRECTION('ref_axis',(0.,1.,0.));
#318=DIRECTION('',(1.,0.,0.));
#319=DIRECTION('center_axis',(-1.,0.,0.));
#320=DIRECTION('ref_axis',(0.,1.,0.));
#321=DIRECTION('center_axis',(-1.,0.,0.));
#322=DIRECTION('ref_axis',(0.,1.,0.));
#323=DIRECTION('center_axis',(-1.,0.,0.));
#324=DIRECTION('ref_axis',(0.,0.479425538604204,0.877582561890372));
#325=DIRECTION('center_axis',(-1.,0.,0.));
#326=DIRECTION('ref_axis',(0.,1.,0.));
#327=DIRECTION('center_axis',(0.,0.877582561890372,-0.479425538604204));
#328=DIRECTION('ref_axis',(0.,-0.479425538604204,-0.877582561890372));
#329=DIRECTION('center_axis',(-1.,0.,0.));
#330=DIRECTION('ref_axis',(0.,1.,0.));
#331=DIRECTION('center_axis',(-1.,0.,0.));
#332=DIRECTION('ref_axis',(0.,1.,0.));
#333=DIRECTION('center_axis',(-1.,0.,0.));
#334=DIRECTION('ref_axis',(0.,0.479425538604204,0.877582561890372));
#335=DIRECTION('',(-1.,0.,0.));
#336=DIRECTION('center_axis',(-1.,0.,0.));
#337=DIRECTION('ref_axis',(0.,1.,0.));
#338=DIRECTION('center_axis',(-1.,0.,0.));
#339=DIRECTION('ref_axis',(0.,1.,0.));
#340=DIRECTION('center_axis',(-1.,-6.66133814775E-15,-8.881784197E-15));
#341=DIRECTION('ref_axis',(2.73431347827561E-15,-0.923128985783844,0.384490410290935));
#342=DIRECTION('center_axis',(-1.,-1.00255985171E-14,-1.83517349883E-14));
#343=DIRECTION('ref_axis',(-1.00255985171E-14,1.,0.));
#344=DIRECTION('',(-0.707106781186867,0.652750765757319,-0.271875776417803));
#345=DIRECTION('center_axis',(-1.,-4.13721411973E-15,-9.93310150813E-15));
#346=DIRECTION('ref_axis',(-4.13721411973E-15,1.,0.));
#347=DIRECTION('center_axis',(-1.,-1.00255985171E-14,-1.83517349883E-14));
#348=DIRECTION('ref_axis',(-1.00255985171E-14,1.,0.));
#349=DIRECTION('center_axis',(-1.,0.,0.));
#350=DIRECTION('ref_axis',(0.,0.877582561890372,-0.479425538604203));
#351=DIRECTION('center_axis',(-1.,0.,0.));
#352=DIRECTION('ref_axis',(0.,1.,0.));
#353=DIRECTION('center_axis',(-1.,0.,0.));
#354=DIRECTION('ref_axis',(0.,1.,0.));
#355=DIRECTION('',(-1.,0.,0.));
#356=DIRECTION('center_axis',(1.,-4.4408920985E-15,-4.4408920985E-15));
#357=DIRECTION('ref_axis',(-3.48342754439379E-15,-0.980569609170388,0.196171459625078));
#358=DIRECTION('',(0.707106781186867,0.69336742006951,-0.138714169376096));
#359=DIRECTION('center_axis',(-1.,-1.02073392878E-15,-1.86844092378E-15));
#360=DIRECTION('ref_axis',(-1.02073392878E-15,1.,0.));
#361=DIRECTION('center_axis',(-1.,0.,0.));
#362=DIRECTION('ref_axis',(0.,0.877582561890372,-0.479425538604204));
#363=DIRECTION('center_axis',(-1.,0.,0.));
#364=DIRECTION('ref_axis',(0.,1.,0.));
#365=DIRECTION('',(0.731353701618872,0.598509868028961,-0.326967431100301));
#366=DIRECTION('center_axis',(-1.,0.,0.));
#367=DIRECTION('ref_axis',(0.,0.877582561890373,-0.479425538604204));
#368=DIRECTION('center_axis',(-1.,0.,0.));
#369=DIRECTION('ref_axis',(0.,1.,0.));
#370=DIRECTION('center_axis',(0.,0.479425538604204,0.877582561890372));
#371=DIRECTION('ref_axis',(0.,-0.877582561890372,0.479425538604204));
#372=DIRECTION('center_axis',(-1.,0.,0.));
#373=DIRECTION('ref_axis',(0.,1.,0.));
#374=DIRECTION('center_axis',(-1.,0.,0.));
#375=DIRECTION('ref_axis',(0.,1.,0.));
#376=DIRECTION('center_axis',(-1.,0.,0.));
#377=DIRECTION('ref_axis',(0.,1.,0.));
#378=DIRECTION('center_axis',(-1.,0.,0.));
#379=DIRECTION('ref_axis',(0.,0.877582561890372,-0.479425538604204));
#380=DIRECTION('center_axis',(-1.,0.,0.));
#381=DIRECTION('ref_axis',(0.,1.,0.));
#382=DIRECTION('',(-0.731353701618872,-0.598509868028961,0.326967431100301));
#383=DIRECTION('center_axis',(-1.,0.,0.));
#384=DIRECTION('ref_axis',(0.,1.,0.));
#385=DIRECTION('center_axis',(-1.,0.,0.));
#386=DIRECTION('ref_axis',(0.,0.479425538604204,0.877582561890372));
#387=DIRECTION('center_axis',(0.,-0.877582561890372,0.479425538604204));
#388=DIRECTION('ref_axis',(0.,-0.479425538604204,-0.877582561890372));
#389=DIRECTION('center_axis',(-1.,0.,0.));
#390=DIRECTION('ref_axis',(0.,1.,0.));
#391=DIRECTION('center_axis',(-1.,0.,0.));
#392=DIRECTION('ref_axis',(0.,0.877582561890372,-0.479425538604204));
#393=DIRECTION('center_axis',(0.,0.479425538604204,0.877582561890372));
#394=DIRECTION('ref_axis',(0.,-0.877582561890372,0.479425538604204));
#395=DIRECTION('center_axis',(-1.,0.,0.));
#396=DIRECTION('ref_axis',(0.,0.877582561890372,-0.479425538604204));
#397=DIRECTION('center_axis',(0.,-0.479425538604204,-0.877582561890372));
#398=DIRECTION('ref_axis',(0.,-0.877582561890372,0.479425538604204));
#399=DIRECTION('center_axis',(-1.,0.,0.));
#400=DIRECTION('ref_axis',(0.,1.,0.));
#401=CARTESIAN_POINT('',(0.,0.,0.));
#402=CARTESIAN_POINT('Origin',(-2.225,0.,0.));
#403=CARTESIAN_POINT('',(-23.99269380175,-19.9211241549,10.8829597263));
#404=CARTESIAN_POINT('Origin',(-23.99269380175,0.,0.));
#405=CARTESIAN_POINT('',(-2.8,-19.9211241549,10.8829597263));
#406=CARTESIAN_POINT('',(-2.225,-19.9211241549115,10.8829597263154));
#407=CARTESIAN_POINT('',(-2.8,-10.8829597263154,-19.9211241549115));
#408=CARTESIAN_POINT('Origin',(-2.8,0.,0.));
#409=CARTESIAN_POINT('Origin',(-2.8,0.,0.));
#410=CARTESIAN_POINT('Origin',(-2.8,0.,0.));
#411=CARTESIAN_POINT('',(-1.8,-9.6843958798,-17.7271677502));
#412=CARTESIAN_POINT('Origin',(-1.8,0.,0.));
#413=CARTESIAN_POINT('',(-2.8,-10.1638214184,-18.6047503121));
#414=CARTESIAN_POINT('Origin',(-2.8,-9.68439587980491,-17.7271677501855));
#415=CARTESIAN_POINT('Origin',(-2.8,0.,0.));
#416=CARTESIAN_POINT('Origin',(-1.8,0.,20.2));
#417=CARTESIAN_POINT('Origin',(-0.899999999300003,0.,0.));
#418=CARTESIAN_POINT('',(-23.89364525856,-10.1638214184091,-18.6047503120759));
#419=CARTESIAN_POINT('',(-0.899999999300003,-10.1638214184091,-18.6047503120759));
#420=CARTESIAN_POINT('',(-23.89364525856,-18.6047503120759,10.1638214184091));
#421=CARTESIAN_POINT('Origin',(-23.89364525856,0.,0.));
#422=CARTESIAN_POINT('Origin',(-23.89364525856,0.,0.));
#423=CARTESIAN_POINT('Origin',(-11.9500000000009,1.41997524849244E-13,1.92290627864992E-13));
#424=CARTESIAN_POINT('',(-32.6000000000096,19.9857425422112,-8.32421738279496));
#425=CARTESIAN_POINT('',(-32.6000000000005,-18.9996624649266,10.379562910781));
#426=CARTESIAN_POINT('Origin',(-32.6,3.53409685539E-28,1.7763568394E-15));
#427=CARTESIAN_POINT('',(-33.00000000001,20.3549941365247,-8.47801354691134));
#428=CARTESIAN_POINT('',(-11.9500000000009,0.923128985783986,-0.384490410290743));
#429=CARTESIAN_POINT('Origin',(-33.0000000000001,1.7763568394E-15,5.3290705182E-15));
#430=CARTESIAN_POINT('Origin',(-32.6,3.53409685539E-28,1.7763568394E-15));
#431=CARTESIAN_POINT('Origin',(-2.225,0.,0.));
#432=CARTESIAN_POINT('',(-31.8999999999903,21.2293320385293,-4.247112100881));
#433=CARTESIAN_POINT('',(-31.9,-18.9996624649266,10.379562910781));
#434=CARTESIAN_POINT('Origin',(-31.9,0.,0.));
#435=CARTESIAN_POINT('Origin',(-31.9,0.,0.));
#436=CARTESIAN_POINT('',(-2.225,-18.9996624649266,10.379562910781));
#437=CARTESIAN_POINT('Origin',(-52.5499999999991,9.3480778673396E-14,9.7033492352496E-14));
#438=CARTESIAN_POINT('',(-31.4999999999899,21.6215598821975,-4.32558068473104));
#439=CARTESIAN_POINT('',(-52.5499999999991,0.980569609170481,-0.19617145962498));
#440=CARTESIAN_POINT('Origin',(-31.5,-3.5527136788E-15,-7.1054273576E-15));
#441=CARTESIAN_POINT('Origin',(-23.99269380175,0.,0.));
#442=CARTESIAN_POINT('',(-27.1130057397945,-22.4746594444907,12.2779624129165));
#443=CARTESIAN_POINT('Origin',(-27.11300573978,0.,0.));
#444=CARTESIAN_POINT('',(-23.99269380175,-19.9211241549115,10.8829597263154));
#445=CARTESIAN_POINT('Origin',(-29.5,0.,0.));
#446=CARTESIAN_POINT('',(-33.,-20.2282780515731,11.0507586648269));
#447=CARTESIAN_POINT('Origin',(-33.,0.,0.));
#448=CARTESIAN_POINT('Origin',(-29.5,-20.2282780515731,11.0507586648269));
#449=CARTESIAN_POINT('Origin',(-31.5,21.65,0.));
#450=CARTESIAN_POINT('',(-31.5,-20.2282780515731,11.0507586648269));
#451=CARTESIAN_POINT('Origin',(-31.5,0.,0.));
#452=CARTESIAN_POINT('Origin',(-33.,21.65,0.));
#453=CARTESIAN_POINT('Origin',(-25.39420473302,0.,0.));
#454=CARTESIAN_POINT('',(-25.39420473302,-19.2681491042703,10.5262378303443));
#455=CARTESIAN_POINT('Origin',(-25.39420473302,0.,0.));
#456=CARTESIAN_POINT('',(-28.1360032798802,-21.5119245617691,11.7520179494263));
#457=CARTESIAN_POINT('',(-25.39420473302,-19.2681491042703,10.5262378303443));
#458=CARTESIAN_POINT('Origin',(-28.13600327988,0.,0.));
#459=CARTESIAN_POINT('Origin',(-2.8,0.,0.));
#460=CARTESIAN_POINT('',(0.,-9.54056821822365,-17.4638929816184));
#461=CARTESIAN_POINT('Origin',(-2.8,-9.54056821822365,-17.4638929816184));
#462=CARTESIAN_POINT('Origin',(0.,0.,0.));
#463=CARTESIAN_POINT('Origin',(-23.34820965283,0.,0.));
#464=CARTESIAN_POINT('Origin',(-23.34820965283,-21.1936188696525,11.5781267572915));
#465=CARTESIAN_POINT('Origin',(-29.5,0.,0.));
#466=CARTESIAN_POINT('Origin',(-29.5,-20.2282780515731,11.0507586648269));
#467=CARTESIAN_POINT('Origin',(0.,0.,19.9));
#468=UNCERTAINTY_MEASURE_WITH_UNIT(LENGTH_MEASURE(0.01),#472,
'DISTANCE_ACCURACY_VALUE',
'Maximum model space distance between geometric entities at asserted c
onnectivities');
#469=UNCERTAINTY_MEASURE_WITH_UNIT(LENGTH_MEASURE(0.01),#472,
'DISTANCE_ACCURACY_VALUE',
'Maximum model space distance between geometric entities at asserted c
onnectivities');
#470=(
GEOMETRIC_REPRESENTATION_CONTEXT(3)
GLOBAL_UNCERTAINTY_ASSIGNED_CONTEXT((#468))
GLOBAL_UNIT_ASSIGNED_CONTEXT((#472,#474,#475))
REPRESENTATION_CONTEXT('','3D')
);
#471=(
GEOMETRIC_REPRESENTATION_CONTEXT(3)
GLOBAL_UNCERTAINTY_ASSIGNED_CONTEXT((#469))
GLOBAL_UNIT_ASSIGNED_CONTEXT((#472,#474,#475))
REPRESENTATION_CONTEXT('','3D')
);
#472=(
LENGTH_UNIT()
NAMED_UNIT(*)
SI_UNIT(.MILLI.,.METRE.)
);
#473=(
LENGTH_UNIT()
NAMED_UNIT(*)
SI_UNIT(.CENTI.,.METRE.)
);
#474=(
NAMED_UNIT(*)
PLANE_ANGLE_UNIT()
SI_UNIT($,.RADIAN.)
);
#475=(
NAMED_UNIT(*)
SI_UNIT($,.STERADIAN.)
SOLID_ANGLE_UNIT()
);
#476=SHAPE_DEFINITION_REPRESENTATION(#477,#478);
#477=PRODUCT_DEFINITION_SHAPE('',$,#480);
#478=SHAPE_REPRESENTATION('',(#271),#470);
#479=PRODUCT_DEFINITION_CONTEXT('part definition',#484,'design');
#480=PRODUCT_DEFINITION('tmp6FE4.tmp','tmp6FE4.tmp',#481,#479);
#481=PRODUCT_DEFINITION_FORMATION('',$,#486);
#482=PRODUCT_RELATED_PRODUCT_CATEGORY('tmp6FE4.tmp','tmp6FE4.tmp',(#486));
#483=APPLICATION_PROTOCOL_DEFINITION('international standard',
'automotive_design',2009,#484);
#484=APPLICATION_CONTEXT(
'Core Data for Automotive Mechanical Design Process');
#485=PRODUCT_CONTEXT('part definition',#484,'mechanical');
#486=PRODUCT('tmp6FE4.tmp','tmp6FE4.tmp',$,(#485));
#487=PRESENTATION_STYLE_ASSIGNMENT((#488));
#488=SURFACE_STYLE_USAGE(.BOTH.,#491);
#489=SURFACE_STYLE_RENDERING_WITH_PROPERTIES($,#495,(#490));
#490=SURFACE_STYLE_TRANSPARENT(0.);
#491=SURFACE_SIDE_STYLE('',(#492,#489));
#492=SURFACE_STYLE_FILL_AREA(#493);
#493=FILL_AREA_STYLE('',(#494));
#494=FILL_AREA_STYLE_COLOUR('',#495);
#495=COLOUR_RGB('',0.745098039215686,0.737254901960784,0.729411764705882);
ENDSEC;
END-ISO-10303-21;
