ISO-10303-21;
HEADER;
/****************************************************************
 * Generated by software with PDE/Lib inside                    *
 * PDElib Version v51a, created Fri 12/12/2008                  *
 * International Technegroup Inc. (www.iti-oh.com)              *
 ****************************************************************/
FILE_DESCRIPTION((''),'2;1');
FILE_NAME('C:\\temp\\60102\\60102032X3XX.stp','2010-10-29T10:39:54',('Creator'),(''),'Autodesk Inventor 2010','Autodesk Inventor 2010','');
FILE_SCHEMA(('AUTOMOTIVE_DESIGN { 1 0 10303 214 1 1 1 1 }'));
ENDSEC;
DATA;
#5=APPLICATION_CONTEXT('automotive design');
#6=APPLICATION_PROTOCOL_DEFINITION('International Standard','automotive_design',2001,#5);
#7=PRODUCT_CONTEXT('',#5,'mechanical');
#8=PRODUCT('60102032X3XX','60102032X3XX',$,(#7));
#9=PRODUCT_RELATED_PRODUCT_CATEGORY('part',$,(#8));
#10=PRODUCT_DEFINITION_FORMATION('',$,#8);
#11=PRODUCT_DEFINITION_CONTEXT('part definition',#5,'design');
#12=PRODUCT_DEFINITION('',$,#10,#11);
#18=(NAMED_UNIT(*)PLANE_ANGLE_UNIT()SI_UNIT($,.RADIAN.));
#19=DIMENSIONAL_EXPONENTS(0.0,0.0,0.0,0.0,0.0,0.0,0.0);
#20=PLANE_ANGLE_MEASURE_WITH_UNIT(PLANE_ANGLE_MEASURE(0.017453292500000),#18);
#24=(CONVERSION_BASED_UNIT('DEGREE',#20)NAMED_UNIT(#19)PLANE_ANGLE_UNIT());
#28=(NAMED_UNIT(*)SI_UNIT($,.STERADIAN.)SOLID_ANGLE_UNIT());
#32=(LENGTH_UNIT()NAMED_UNIT(*)SI_UNIT(.MILLI.,.METRE.));
#34=UNCERTAINTY_MEASURE_WITH_UNIT(LENGTH_MEASURE(0.010000000000000),#32,'DISTANCE_ACCURACY_VALUE','');
#36=(GEOMETRIC_REPRESENTATION_CONTEXT(3)GLOBAL_UNCERTAINTY_ASSIGNED_CONTEXT((#34))GLOBAL_UNIT_ASSIGNED_CONTEXT((#24,#28,#32))REPRESENTATION_CONTEXT('None','None'));
#37=AXIS2_PLACEMENT_3D('',#38,#39,#40);
#38=CARTESIAN_POINT('',(0.0,0.0,0.0));
#39=DIRECTION('',(0.0,0.0,1.0));
#40=DIRECTION('',(1.0,0.0,0.0));
#41=SHAPE_REPRESENTATION('',(#37),#36);
#42=PRODUCT_DEFINITION_SHAPE('','',#12);
#43=SHAPE_DEFINITION_REPRESENTATION(#42,#41);
#49=(NAMED_UNIT(*)PLANE_ANGLE_UNIT()SI_UNIT($,.RADIAN.));
#50=DIMENSIONAL_EXPONENTS(0.0,0.0,0.0,0.0,0.0,0.0,0.0);
#51=PLANE_ANGLE_MEASURE_WITH_UNIT(PLANE_ANGLE_MEASURE(0.017453292500000),#49);
#55=(CONVERSION_BASED_UNIT('DEGREE',#51)NAMED_UNIT(#50)PLANE_ANGLE_UNIT());
#59=(NAMED_UNIT(*)SI_UNIT($,.STERADIAN.)SOLID_ANGLE_UNIT());
#63=(LENGTH_UNIT()NAMED_UNIT(*)SI_UNIT(.MILLI.,.METRE.));
#65=UNCERTAINTY_MEASURE_WITH_UNIT(LENGTH_MEASURE(0.000001000000000),#63,'DISTANCE_ACCURACY_VALUE','');
#67=(GEOMETRIC_REPRESENTATION_CONTEXT(3)GLOBAL_UNCERTAINTY_ASSIGNED_CONTEXT((#65))GLOBAL_UNIT_ASSIGNED_CONTEXT((#55,#59,#63))REPRESENTATION_CONTEXT('','3D'));
#68=CARTESIAN_POINT('',(-232.500000000000030,-30.339267484298436,-3.127115046842969));
#69=DIRECTION('',(1.0,-4.012112E-016,-4.135346E-017));
#70=DIRECTION('',(4.033368E-016,0.994730081452408,0.102528362191572));
#71=AXIS2_PLACEMENT_3D('',#68,#69,#70);
#72=CYLINDRICAL_SURFACE('',#71,3.000000000000000);
#73=CARTESIAN_POINT('',(-197.500000000000030,-33.323457728655647,-3.434700133417683));
#74=VERTEX_POINT('',#73);
#75=CARTESIAN_POINT('',(-197.500000000000060,-30.339267484298450,-3.127115046842971));
#76=DIRECTION('',(1.000000000000000,-4.012112E-016,-4.135346E-017));
#77=DIRECTION('',(4.033368E-016,0.994730081452408,0.102528362191572));
#78=AXIS2_PLACEMENT_3D('',#75,#76,#77);
#79=CIRCLE('',#78,3.0);
#80=EDGE_CURVE('',#74,#74,#79,.T.);
#81=ORIENTED_EDGE('',*,*,#80,.F.);
#82=EDGE_LOOP('',(#81));
#83=FACE_OUTER_BOUND('',#82,.T.);
#84=CARTESIAN_POINT('',(-232.500000000000030,-33.323457728655647,-3.434700133417683));
#85=VERTEX_POINT('',#84);
#86=CARTESIAN_POINT('',(-232.500000000000030,-30.339267484298436,-3.127115046842969));
#87=DIRECTION('',(-1.000000000000000,4.012112E-016,4.135346E-017));
#88=DIRECTION('',(4.033368E-016,0.994730081452408,0.102528362191572));
#89=AXIS2_PLACEMENT_3D('',#86,#87,#88);
#90=CIRCLE('',#89,3.0);
#91=EDGE_CURVE('',#85,#85,#90,.T.);
#92=ORIENTED_EDGE('',*,*,#91,.F.);
#93=EDGE_LOOP('',(#92));
#94=FACE_BOUND('',#93,.T.);
#95=ADVANCED_FACE('',(#83,#94),#72,.T.);
#96=CARTESIAN_POINT('',(-232.500000000000030,-23.376156914131563,-2.409416511501961));
#97=DIRECTION('',(0.0,-0.102528362191572,0.994730081452408));
#98=DIRECTION('',(4.033368E-016,0.994730081452408,0.102528362191572));
#99=AXIS2_PLACEMENT_3D('',#96,#97,#98);
#100=TOROIDAL_SURFACE('',#99,7.000000000000006,3.000000000000000);
#101=ORIENTED_EDGE('',*,*,#91,.T.);
#102=EDGE_LOOP('',(#101));
#103=FACE_OUTER_BOUND('',#102,.T.);
#104=CARTESIAN_POINT('',(-242.500000000000000,-23.376156914131563,-2.409416511501960));
#105=VERTEX_POINT('',#104);
#106=CARTESIAN_POINT('',(-239.500000000000030,-23.376156914131563,-2.409416511501960));
#107=DIRECTION('',(0.0,0.994730081452408,0.102528362191572));
#108=DIRECTION('',(1.0,0.0,0.0));
#109=AXIS2_PLACEMENT_3D('',#106,#107,#108);
#110=CIRCLE('',#109,3.000000000000000);
#111=EDGE_CURVE('',#105,#105,#110,.T.);
#112=ORIENTED_EDGE('',*,*,#111,.F.);
#113=EDGE_LOOP('',(#112));
#114=FACE_BOUND('',#113,.T.);
#115=ADVANCED_FACE('',(#103,#114),#100,.T.);
#116=CARTESIAN_POINT('',(-239.500000000000030,23.376156914131606,2.409416511501937));
#117=DIRECTION('',(-4.033368E-016,-0.994730081452408,-0.102528362191572));
#118=DIRECTION('',(1.0,0.0,0.0));
#119=AXIS2_PLACEMENT_3D('',#116,#117,#118);
#120=CYLINDRICAL_SURFACE('',#119,3.000000000000000);
#121=ORIENTED_EDGE('',*,*,#111,.T.);
#122=EDGE_LOOP('',(#121));
#123=FACE_OUTER_BOUND('',#122,.T.);
#124=CARTESIAN_POINT('',(-242.500000000000000,23.376156914131606,2.409416511501937));
#125=VERTEX_POINT('',#124);
#126=CARTESIAN_POINT('',(-239.500000000000030,23.376156914131606,2.409416511501937));
#127=DIRECTION('',(0.0,0.994730081452408,0.102528362191572));
#128=DIRECTION('',(1.0,0.0,0.0));
#129=AXIS2_PLACEMENT_3D('',#126,#127,#128);
#130=CIRCLE('',#129,3.000000000000000);
#131=EDGE_CURVE('',#125,#125,#130,.T.);
#132=ORIENTED_EDGE('',*,*,#131,.F.);
#133=EDGE_LOOP('',(#132));
#134=FACE_BOUND('',#133,.T.);
#135=ADVANCED_FACE('',(#123,#134),#120,.T.);
#136=CARTESIAN_POINT('',(-232.500000000000000,23.376156914131599,2.409416511501937));
#137=DIRECTION('',(0.0,-0.102528362191572,0.994730081452408));
#138=DIRECTION('',(4.033368E-016,0.994730081452408,0.102528362191572));
#139=AXIS2_PLACEMENT_3D('',#136,#137,#138);
#140=TOROIDAL_SURFACE('',#139,7.000000000000003,3.000000000000000);
#141=ORIENTED_EDGE('',*,*,#131,.T.);
#142=EDGE_LOOP('',(#141));
#143=FACE_OUTER_BOUND('',#142,.T.);
#144=CARTESIAN_POINT('',(-232.500000000000000,33.323457728655683,3.434700133417660));
#145=VERTEX_POINT('',#144);
#146=CARTESIAN_POINT('',(-232.500000000000000,30.339267484298457,3.127115046842943));
#147=DIRECTION('',(1.000000000000000,-4.012112E-016,-4.135346E-017));
#148=DIRECTION('',(-4.033368E-016,-0.994730081452408,-0.102528362191572));
#149=AXIS2_PLACEMENT_3D('',#146,#147,#148);
#150=CIRCLE('',#149,3.0);
#151=EDGE_CURVE('',#145,#145,#150,.T.);
#152=ORIENTED_EDGE('',*,*,#151,.F.);
#153=EDGE_LOOP('',(#152));
#154=FACE_BOUND('',#153,.T.);
#155=ADVANCED_FACE('',(#143,#154),#140,.T.);
#156=CARTESIAN_POINT('',(-197.500000000000000,30.339267484298446,3.127115046842941));
#157=DIRECTION('',(-1.0,4.012112E-016,4.135346E-017));
#158=DIRECTION('',(-4.033368E-016,-0.994730081452408,-0.102528362191572));
#159=AXIS2_PLACEMENT_3D('',#156,#157,#158);
#160=CYLINDRICAL_SURFACE('',#159,3.000000000000000);
#161=ORIENTED_EDGE('',*,*,#151,.T.);
#162=EDGE_LOOP('',(#161));
#163=FACE_OUTER_BOUND('',#162,.T.);
#164=CARTESIAN_POINT('',(-197.500000000000000,33.323457728655669,3.434700133417658));
#165=VERTEX_POINT('',#164);
#166=CARTESIAN_POINT('',(-197.500000000000060,30.339267484298446,3.127115046842941));
#167=DIRECTION('',(1.000000000000000,-4.012112E-016,-4.135346E-017));
#168=DIRECTION('',(-4.033368E-016,-0.994730081452408,-0.102528362191572));
#169=AXIS2_PLACEMENT_3D('',#166,#167,#168);
#170=CIRCLE('',#169,3.0);
#171=EDGE_CURVE('',#165,#165,#170,.T.);
#172=ORIENTED_EDGE('',*,*,#171,.F.);
#173=EDGE_LOOP('',(#172));
#174=FACE_BOUND('',#173,.T.);
#175=ADVANCED_FACE('',(#163,#174),#160,.T.);
#176=CARTESIAN_POINT('',(184.500000000000030,18.750000000000000,0.0));
#177=DIRECTION('',(-1.0,0.0,0.0));
#178=DIRECTION('',(0.0,0.0,1.0));
#179=AXIS2_PLACEMENT_3D('',#176,#177,#178);
#180=PLANE('',#179);
#181=CARTESIAN_POINT('',(184.500000000000060,-19.000000000000007,0.0));
#182=VERTEX_POINT('',#181);
#183=CARTESIAN_POINT('',(184.500000000000000,0.0,0.0));
#184=DIRECTION('',(-1.0,0.0,0.0));
#185=DIRECTION('',(0.0,-1.0,0.0));
#186=AXIS2_PLACEMENT_3D('',#183,#184,#185);
#187=CIRCLE('',#186,19.000000000000007);
#188=EDGE_CURVE('',#182,#182,#187,.T.);
#189=ORIENTED_EDGE('',*,*,#188,.T.);
#190=EDGE_LOOP('',(#189));
#191=FACE_OUTER_BOUND('',#190,.T.);
#192=CARTESIAN_POINT('',(184.500000000000030,17.500000000000000,0.0));
#193=VERTEX_POINT('',#192);
#194=CARTESIAN_POINT('',(184.500000000000030,0.0,0.0));
#195=DIRECTION('',(1.0,0.0,0.0));
#196=DIRECTION('',(0.0,1.0,0.0));
#197=AXIS2_PLACEMENT_3D('',#194,#195,#196);
#198=CIRCLE('',#197,17.500000000000000);
#199=EDGE_CURVE('',#193,#193,#198,.T.);
#200=ORIENTED_EDGE('',*,*,#199,.T.);
#201=EDGE_LOOP('',(#200));
#202=FACE_BOUND('',#201,.T.);
#203=ADVANCED_FACE('',(#191,#202),#180,.T.);
#204=CARTESIAN_POINT('',(188.0,0.0,0.0));
#205=DIRECTION('',(1.0,0.0,0.0));
#206=DIRECTION('',(0.0,1.0,0.0));
#207=AXIS2_PLACEMENT_3D('',#204,#205,#206);
#208=CYLINDRICAL_SURFACE('',#207,17.500000000000000);
#209=ORIENTED_EDGE('',*,*,#199,.F.);
#210=EDGE_LOOP('',(#209));
#211=FACE_OUTER_BOUND('',#210,.T.);
#212=CARTESIAN_POINT('',(191.500000000000030,17.500000000000000,0.0));
#213=VERTEX_POINT('',#212);
#214=CARTESIAN_POINT('',(191.500000000000030,0.0,0.0));
#215=DIRECTION('',(1.0,0.0,0.0));
#216=DIRECTION('',(0.0,1.0,0.0));
#217=AXIS2_PLACEMENT_3D('',#214,#215,#216);
#218=CIRCLE('',#217,17.500000000000000);
#219=EDGE_CURVE('',#213,#213,#218,.T.);
#220=ORIENTED_EDGE('',*,*,#219,.T.);
#221=EDGE_LOOP('',(#220));
#222=FACE_BOUND('',#221,.T.);
#223=ADVANCED_FACE('',(#211,#222),#208,.F.);
#224=CARTESIAN_POINT('',(181.500000000000030,21.0,0.0));
#225=DIRECTION('',(-1.0,0.0,0.0));
#226=DIRECTION('',(0.0,0.0,1.0));
#227=AXIS2_PLACEMENT_3D('',#224,#225,#226);
#228=PLANE('',#227);
#229=CARTESIAN_POINT('',(181.500000000000030,22.0,0.0));
#230=VERTEX_POINT('',#229);
#231=CARTESIAN_POINT('',(181.500000000000030,0.0,0.0));
#232=DIRECTION('',(1.0,0.0,0.0));
#233=DIRECTION('',(0.0,1.0,0.0));
#234=AXIS2_PLACEMENT_3D('',#231,#232,#233);
#235=CIRCLE('',#234,22.0);
#236=EDGE_CURVE('',#230,#230,#235,.T.);
#237=ORIENTED_EDGE('',*,*,#236,.F.);
#238=EDGE_LOOP('',(#237));
#239=FACE_OUTER_BOUND('',#238,.T.);
#240=CARTESIAN_POINT('',(181.500000000000030,20.0,0.0));
#241=VERTEX_POINT('',#240);
#242=CARTESIAN_POINT('',(181.500000000000030,0.0,0.0));
#243=DIRECTION('',(-1.0,0.0,0.0));
#244=DIRECTION('',(0.0,-1.0,0.0));
#245=AXIS2_PLACEMENT_3D('',#242,#243,#244);
#246=CIRCLE('',#245,20.000000000000032);
#247=EDGE_CURVE('',#241,#241,#246,.T.);
#248=ORIENTED_EDGE('',*,*,#247,.F.);
#249=EDGE_LOOP('',(#248));
#250=FACE_BOUND('',#249,.T.);
#251=ADVANCED_FACE('',(#239,#250),#228,.T.);
#252=CARTESIAN_POINT('',(184.000000000000030,0.0,0.0));
#253=DIRECTION('',(1.0,0.0,0.0));
#254=DIRECTION('',(0.0,1.0,0.0));
#255=AXIS2_PLACEMENT_3D('',#252,#253,#254);
#256=CYLINDRICAL_SURFACE('',#255,22.0);
#257=CARTESIAN_POINT('',(186.500000000000030,22.0,0.0));
#258=VERTEX_POINT('',#257);
#259=CARTESIAN_POINT('',(186.500000000000030,0.0,0.0));
#260=DIRECTION('',(1.0,0.0,0.0));
#261=DIRECTION('',(0.0,1.0,0.0));
#262=AXIS2_PLACEMENT_3D('',#259,#260,#261);
#263=CIRCLE('',#262,22.0);
#264=EDGE_CURVE('',#258,#258,#263,.T.);
#265=ORIENTED_EDGE('',*,*,#264,.F.);
#266=EDGE_LOOP('',(#265));
#267=FACE_OUTER_BOUND('',#266,.T.);
#268=ORIENTED_EDGE('',*,*,#236,.T.);
#269=EDGE_LOOP('',(#268));
#270=FACE_BOUND('',#269,.T.);
#271=ADVANCED_FACE('',(#267,#270),#256,.T.);
#272=CARTESIAN_POINT('',(186.500000000000030,21.125000000000007,0.0));
#273=DIRECTION('',(1.0,0.0,0.0));
#274=DIRECTION('',(0.0,0.0,-1.0));
#275=AXIS2_PLACEMENT_3D('',#272,#273,#274);
#276=PLANE('',#275);
#277=ORIENTED_EDGE('',*,*,#264,.T.);
#278=EDGE_LOOP('',(#277));
#279=FACE_OUTER_BOUND('',#278,.T.);
#280=CARTESIAN_POINT('',(186.500000000000030,20.250000000000007,0.0));
#281=VERTEX_POINT('',#280);
#282=CARTESIAN_POINT('',(186.500000000000030,0.0,0.0));
#283=DIRECTION('',(1.0,0.0,0.0));
#284=DIRECTION('',(0.0,1.0,0.0));
#285=AXIS2_PLACEMENT_3D('',#282,#283,#284);
#286=CIRCLE('',#285,20.250000000000007);
#287=EDGE_CURVE('',#281,#281,#286,.T.);
#288=ORIENTED_EDGE('',*,*,#287,.F.);
#289=EDGE_LOOP('',(#288));
#290=FACE_BOUND('',#289,.T.);
#291=ADVANCED_FACE('',(#279,#290),#276,.T.);
#292=CARTESIAN_POINT('',(188.0,0.0,0.0));
#293=DIRECTION('',(1.0,0.0,0.0));
#294=DIRECTION('',(0.0,1.0,0.0));
#295=AXIS2_PLACEMENT_3D('',#292,#293,#294);
#296=CYLINDRICAL_SURFACE('',#295,20.250000000000007);
#297=CARTESIAN_POINT('',(189.500000000000030,20.250000000000007,0.0));
#298=VERTEX_POINT('',#297);
#299=CARTESIAN_POINT('',(189.500000000000030,0.0,0.0));
#300=DIRECTION('',(1.0,0.0,0.0));
#301=DIRECTION('',(0.0,1.0,0.0));
#302=AXIS2_PLACEMENT_3D('',#299,#300,#301);
#303=CIRCLE('',#302,20.250000000000007);
#304=EDGE_CURVE('',#298,#298,#303,.T.);
#305=ORIENTED_EDGE('',*,*,#304,.F.);
#306=EDGE_LOOP('',(#305));
#307=FACE_OUTER_BOUND('',#306,.T.);
#308=ORIENTED_EDGE('',*,*,#287,.T.);
#309=EDGE_LOOP('',(#308));
#310=FACE_BOUND('',#309,.T.);
#311=ADVANCED_FACE('',(#307,#310),#296,.T.);
#312=CARTESIAN_POINT('',(189.500000000000030,21.125000000000007,0.0));
#313=DIRECTION('',(-1.0,0.0,0.0));
#314=DIRECTION('',(0.0,0.0,1.0));
#315=AXIS2_PLACEMENT_3D('',#312,#313,#314);
#316=PLANE('',#315);
#317=CARTESIAN_POINT('',(189.500000000000030,22.0,0.0));
#318=VERTEX_POINT('',#317);
#319=CARTESIAN_POINT('',(189.500000000000030,0.0,0.0));
#320=DIRECTION('',(1.0,0.0,0.0));
#321=DIRECTION('',(0.0,1.0,0.0));
#322=AXIS2_PLACEMENT_3D('',#319,#320,#321);
#323=CIRCLE('',#322,22.0);
#324=EDGE_CURVE('',#318,#318,#323,.T.);
#325=ORIENTED_EDGE('',*,*,#324,.F.);
#326=EDGE_LOOP('',(#325));
#327=FACE_OUTER_BOUND('',#326,.T.);
#328=ORIENTED_EDGE('',*,*,#304,.T.);
#329=EDGE_LOOP('',(#328));
#330=FACE_BOUND('',#329,.T.);
#331=ADVANCED_FACE('',(#327,#330),#316,.T.);
#332=CARTESIAN_POINT('',(190.250000000000030,0.0,0.0));
#333=DIRECTION('',(1.0,0.0,0.0));
#334=DIRECTION('',(0.0,1.0,0.0));
#335=AXIS2_PLACEMENT_3D('',#332,#333,#334);
#336=CYLINDRICAL_SURFACE('',#335,22.0);
#337=CARTESIAN_POINT('',(191.0,22.0,0.0));
#338=VERTEX_POINT('',#337);
#339=CARTESIAN_POINT('',(191.0,0.0,0.0));
#340=DIRECTION('',(1.0,0.0,0.0));
#341=DIRECTION('',(0.0,1.0,0.0));
#342=AXIS2_PLACEMENT_3D('',#339,#340,#341);
#343=CIRCLE('',#342,22.0);
#344=EDGE_CURVE('',#338,#338,#343,.T.);
#345=ORIENTED_EDGE('',*,*,#344,.F.);
#346=EDGE_LOOP('',(#345));
#347=FACE_OUTER_BOUND('',#346,.T.);
#348=ORIENTED_EDGE('',*,*,#324,.T.);
#349=EDGE_LOOP('',(#348));
#350=FACE_BOUND('',#349,.T.);
#351=ADVANCED_FACE('',(#347,#350),#336,.T.);
#352=CARTESIAN_POINT('',(191.250000000000030,0.0,0.0));
#353=DIRECTION('',(-1.0,0.0,0.0));
#354=DIRECTION('',(0.0,1.0,0.0));
#355=AXIS2_PLACEMENT_3D('',#352,#353,#354);
#356=CONICAL_SURFACE('',#355,21.750000000000007,44.999999999999893);
#357=CARTESIAN_POINT('',(191.500000000000030,21.500000000000007,0.0));
#358=VERTEX_POINT('',#357);
#359=CARTESIAN_POINT('',(191.500000000000030,0.0,0.0));
#360=DIRECTION('',(1.0,0.0,0.0));
#361=DIRECTION('',(0.0,1.0,0.0));
#362=AXIS2_PLACEMENT_3D('',#359,#360,#361);
#363=CIRCLE('',#362,21.500000000000007);
#364=EDGE_CURVE('',#358,#358,#363,.T.);
#365=ORIENTED_EDGE('',*,*,#364,.F.);
#366=EDGE_LOOP('',(#365));
#367=FACE_OUTER_BOUND('',#366,.T.);
#368=ORIENTED_EDGE('',*,*,#344,.T.);
#369=EDGE_LOOP('',(#368));
#370=FACE_BOUND('',#369,.T.);
#371=ADVANCED_FACE('',(#367,#370),#356,.T.);
#372=CARTESIAN_POINT('',(191.500000000000030,19.500000000000000,0.0));
#373=DIRECTION('',(1.0,0.0,0.0));
#374=DIRECTION('',(0.0,0.0,-1.0));
#375=AXIS2_PLACEMENT_3D('',#372,#373,#374);
#376=PLANE('',#375);
#377=ORIENTED_EDGE('',*,*,#364,.T.);
#378=EDGE_LOOP('',(#377));
#379=FACE_OUTER_BOUND('',#378,.T.);
#380=ORIENTED_EDGE('',*,*,#219,.F.);
#381=EDGE_LOOP('',(#380));
#382=FACE_BOUND('',#381,.T.);
#383=ADVANCED_FACE('',(#379,#382),#376,.T.);
#384=CARTESIAN_POINT('',(-184.500000000000060,-1.794246338352532,17.407776425417126));
#385=DIRECTION('',(1.0,0.0,0.0));
#386=DIRECTION('',(0.0,0.994730081452408,0.102528362191572));
#387=AXIS2_PLACEMENT_3D('',#384,#385,#386);
#388=PLANE('',#387);
#389=CARTESIAN_POINT('',(-184.500000000000060,-19.000000000000007,0.0));
#390=VERTEX_POINT('',#389);
#391=CARTESIAN_POINT('',(-184.500000000000060,0.0,0.0));
#392=DIRECTION('',(-1.0,0.0,0.0));
#393=DIRECTION('',(0.0,-1.0,0.0));
#394=AXIS2_PLACEMENT_3D('',#391,#392,#393);
#395=CIRCLE('',#394,19.000000000000007);
#396=EDGE_CURVE('',#390,#390,#395,.T.);
#397=ORIENTED_EDGE('',*,*,#396,.F.);
#398=EDGE_LOOP('',(#397));
#399=FACE_OUTER_BOUND('',#398,.T.);
#400=CARTESIAN_POINT('',(-184.500000000000060,-1.537925432873601,14.920951221786105));
#401=VERTEX_POINT('',#400);
#402=CARTESIAN_POINT('',(-184.500000000000060,-2.054174E-014,-1.284543E-014));
#403=DIRECTION('',(-1.000000000000000,0.0,0.0));
#404=DIRECTION('',(0.0,-0.102528362191572,0.994730081452408));
#405=AXIS2_PLACEMENT_3D('',#402,#403,#404);
#406=CIRCLE('',#405,14.999999999999998);
#407=EDGE_CURVE('',#401,#401,#406,.T.);
#408=ORIENTED_EDGE('',*,*,#407,.T.);
#409=EDGE_LOOP('',(#408));
#410=FACE_BOUND('',#409,.T.);
#411=ADVANCED_FACE('',(#399,#410),#388,.T.);
#412=CARTESIAN_POINT('',(-181.500000000000060,-0.768962716436811,7.460475610893045));
#413=DIRECTION('',(1.0,0.0,0.0));
#414=DIRECTION('',(0.0,0.994730081452408,0.102528362191572));
#415=AXIS2_PLACEMENT_3D('',#412,#413,#414);
#416=PLANE('',#415);
#417=CARTESIAN_POINT('',(-181.500000000000060,-1.537925432873601,14.920951221786105));
#418=VERTEX_POINT('',#417);
#419=CARTESIAN_POINT('',(-181.500000000000060,-2.052040E-014,-1.305250E-014));
#420=DIRECTION('',(-1.000000000000000,0.0,0.0));
#421=DIRECTION('',(0.0,-0.102528362191572,0.994730081452408));
#422=AXIS2_PLACEMENT_3D('',#419,#420,#421);
#423=CIRCLE('',#422,15.000000000000005);
#424=EDGE_CURVE('',#418,#418,#423,.T.);
#425=ORIENTED_EDGE('',*,*,#424,.F.);
#426=EDGE_LOOP('',(#425));
#427=FACE_OUTER_BOUND('',#426,.T.);
#428=ADVANCED_FACE('',(#427),#416,.T.);
#429=CARTESIAN_POINT('',(-183.000000000000090,-2.053107E-014,-1.294897E-014));
#430=DIRECTION('',(-1.0,0.0,0.0));
#431=DIRECTION('',(0.0,-0.102528362191572,0.994730081452408));
#432=AXIS2_PLACEMENT_3D('',#429,#430,#431);
#433=CYLINDRICAL_SURFACE('',#432,14.999999999999998);
#434=ORIENTED_EDGE('',*,*,#407,.F.);
#435=EDGE_LOOP('',(#434));
#436=FACE_OUTER_BOUND('',#435,.T.);
#437=ORIENTED_EDGE('',*,*,#424,.T.);
#438=EDGE_LOOP('',(#437));
#439=FACE_BOUND('',#438,.T.);
#440=ADVANCED_FACE('',(#436,#439),#433,.T.);
#441=CARTESIAN_POINT('',(-181.500000000000060,-2.742633688624574,26.609029678851897));
#442=DIRECTION('',(1.0,0.0,0.0));
#443=DIRECTION('',(0.0,0.994730081452408,0.102528362191572));
#444=AXIS2_PLACEMENT_3D('',#441,#442,#443);
#445=PLANE('',#444);
#446=CARTESIAN_POINT('',(-181.500000000000060,-3.434700133417685,33.323457728655647));
#447=VERTEX_POINT('',#446);
#448=CARTESIAN_POINT('',(-181.500000000000060,-2.052040E-014,-1.305250E-014));
#449=DIRECTION('',(-1.000000000000000,0.0,0.0));
#450=DIRECTION('',(0.0,-0.102528362191572,0.994730081452408));
#451=AXIS2_PLACEMENT_3D('',#448,#449,#450);
#452=CIRCLE('',#451,33.500000000000000);
#453=EDGE_CURVE('',#447,#447,#452,.T.);
#454=ORIENTED_EDGE('',*,*,#453,.F.);
#455=EDGE_LOOP('',(#454));
#456=FACE_OUTER_BOUND('',#455,.T.);
#457=CARTESIAN_POINT('',(-181.500000000000060,-2.050567243831462,19.894601629048147));
#458=VERTEX_POINT('',#457);
#459=CARTESIAN_POINT('',(-181.500000000000060,0.0,0.0));
#460=DIRECTION('',(1.0,0.0,0.0));
#461=DIRECTION('',(0.0,-1.0,0.0));
#462=AXIS2_PLACEMENT_3D('',#459,#460,#461);
#463=CIRCLE('',#462,20.000000000000032);
#464=EDGE_CURVE('',#458,#458,#463,.T.);
#465=ORIENTED_EDGE('',*,*,#464,.F.);
#466=EDGE_LOOP('',(#465));
#467=FACE_BOUND('',#466,.T.);
#468=ADVANCED_FACE('',(#456,#467),#445,.T.);
#469=CARTESIAN_POINT('',(-181.781515482732460,-2.052240E-014,-1.303307E-014));
#470=DIRECTION('',(-1.0,0.0,0.0));
#471=DIRECTION('',(0.0,-0.102528362191572,0.994730081452408));
#472=AXIS2_PLACEMENT_3D('',#469,#470,#471);
#473=CONICAL_SURFACE('',#472,36.717736691668264,85.0);
#474=CARTESIAN_POINT('',(-182.063030965464800,-4.094518679338633,39.725016691446783));
#475=VERTEX_POINT('',#474);
#476=CARTESIAN_POINT('',(-182.063030965464800,-2.052441E-014,-1.301364E-014));
#477=DIRECTION('',(-1.000000000000000,0.0,0.0));
#478=DIRECTION('',(0.0,-0.102528362191572,0.994730081452408));
#479=AXIS2_PLACEMENT_3D('',#476,#477,#478);
#480=CIRCLE('',#479,39.935473383336515);
#481=EDGE_CURVE('',#475,#475,#480,.T.);
#482=ORIENTED_EDGE('',*,*,#481,.F.);
#483=EDGE_LOOP('',(#482));
#484=FACE_OUTER_BOUND('',#483,.T.);
#485=ORIENTED_EDGE('',*,*,#453,.T.);
#486=EDGE_LOOP('',(#485));
#487=FACE_BOUND('',#486,.T.);
#488=ADVANCED_FACE('',(#484,#487),#473,.T.);
#489=CARTESIAN_POINT('',(-187.781515482732430,-2.056509E-014,-1.261893E-014));
#490=DIRECTION('',(-1.0,0.0,0.0));
#491=DIRECTION('',(0.0,-0.102528362191572,0.994730081452408));
#492=AXIS2_PLACEMENT_3D('',#489,#490,#491);
#493=CONICAL_SURFACE('',#492,41.467736691668264,15.000000000000011);
#494=CARTESIAN_POINT('',(-193.500000000000060,-4.408719574237619,42.773393502453523));
#495=VERTEX_POINT('',#494);
#496=CARTESIAN_POINT('',(-193.500000000000060,-2.060577E-014,-1.222422E-014));
#497=DIRECTION('',(-1.000000000000000,0.0,0.0));
#498=DIRECTION('',(0.0,-0.102528362191572,0.994730081452408));
#499=AXIS2_PLACEMENT_3D('',#496,#497,#498);
#500=CIRCLE('',#499,42.999999999999993);
#501=EDGE_CURVE('',#495,#495,#500,.T.);
#502=ORIENTED_EDGE('',*,*,#501,.F.);
#503=EDGE_LOOP('',(#502));
#504=FACE_OUTER_BOUND('',#503,.T.);
#505=ORIENTED_EDGE('',*,*,#481,.T.);
#506=EDGE_LOOP('',(#505));
#507=FACE_BOUND('',#506,.T.);
#508=ADVANCED_FACE('',(#504,#507),#493,.T.);
#509=CARTESIAN_POINT('',(-193.500000000000060,-4.229294940402369,41.032615859911814));
#510=DIRECTION('',(-1.0,0.0,0.0));
#511=DIRECTION('',(0.0,-0.994730081452408,-0.102528362191572));
#512=AXIS2_PLACEMENT_3D('',#509,#510,#511);
#513=PLANE('',#512);
#514=ORIENTED_EDGE('',*,*,#501,.T.);
#515=EDGE_LOOP('',(#514));
#516=FACE_OUTER_BOUND('',#515,.T.);
#517=CARTESIAN_POINT('',(-193.500000000000060,-4.049870306567116,39.291838217370085));
#518=VERTEX_POINT('',#517);
#519=CARTESIAN_POINT('',(-193.500000000000060,-2.060577E-014,-1.222422E-014));
#520=DIRECTION('',(-1.000000000000000,0.0,0.0));
#521=DIRECTION('',(0.0,-0.102528362191572,0.994730081452408));
#522=AXIS2_PLACEMENT_3D('',#519,#520,#521);
#523=CIRCLE('',#522,39.499999999999986);
#524=EDGE_CURVE('',#518,#518,#523,.T.);
#525=ORIENTED_EDGE('',*,*,#524,.F.);
#526=EDGE_LOOP('',(#525));
#527=FACE_BOUND('',#526,.T.);
#528=ADVANCED_FACE('',(#516,#527),#513,.T.);
#529=CARTESIAN_POINT('',(-195.500000000000090,-2.062000E-014,-1.208618E-014));
#530=DIRECTION('',(-1.0,0.0,0.0));
#531=DIRECTION('',(0.0,-0.102528362191572,0.994730081452408));
#532=AXIS2_PLACEMENT_3D('',#529,#530,#531);
#533=CYLINDRICAL_SURFACE('',#532,39.500000000000007);
#534=CARTESIAN_POINT('',(-197.500000000000060,-4.049870306567117,39.291838217370099));
#535=VERTEX_POINT('',#534);
#536=CARTESIAN_POINT('',(-197.500000000000060,-2.063423E-014,-1.194813E-014));
#537=DIRECTION('',(-1.000000000000000,0.0,0.0));
#538=DIRECTION('',(0.0,-0.102528362191572,0.994730081452408));
#539=AXIS2_PLACEMENT_3D('',#536,#537,#538);
#540=CIRCLE('',#539,39.500000000000000);
#541=EDGE_CURVE('',#535,#535,#540,.T.);
#542=ORIENTED_EDGE('',*,*,#541,.F.);
#543=EDGE_LOOP('',(#542));
#544=FACE_OUTER_BOUND('',#543,.T.);
#545=ORIENTED_EDGE('',*,*,#524,.T.);
#546=EDGE_LOOP('',(#545));
#547=FACE_BOUND('',#546,.T.);
#548=ADVANCED_FACE('',(#544,#547),#533,.T.);
#549=CARTESIAN_POINT('',(-197.500000000000060,-2.024935153283569,19.645919108685042));
#550=DIRECTION('',(-1.0,0.0,0.0));
#551=DIRECTION('',(0.0,-0.994730081452408,-0.102528362191572));
#552=AXIS2_PLACEMENT_3D('',#549,#550,#551);
#553=PLANE('',#552);
#554=ORIENTED_EDGE('',*,*,#541,.T.);
#555=EDGE_LOOP('',(#554));
#556=FACE_OUTER_BOUND('',#555,.T.);
#557=ORIENTED_EDGE('',*,*,#80,.T.);
#558=EDGE_LOOP('',(#557));
#559=FACE_BOUND('',#558,.T.);
#560=ORIENTED_EDGE('',*,*,#171,.T.);
#561=EDGE_LOOP('',(#560));
#562=FACE_BOUND('',#561,.T.);
#563=ADVANCED_FACE('',(#556,#559,#562),#553,.T.);
#564=CARTESIAN_POINT('',(0.0,0.0,0.0));
#565=DIRECTION('',(-1.0,0.0,0.0));
#566=DIRECTION('',(0.0,-1.0,0.0));
#567=AXIS2_PLACEMENT_3D('',#564,#565,#566);
#568=CYLINDRICAL_SURFACE('',#567,20.000000000000032);
#569=ORIENTED_EDGE('',*,*,#247,.T.);
#570=EDGE_LOOP('',(#569));
#571=FACE_OUTER_BOUND('',#570,.T.);
#572=ORIENTED_EDGE('',*,*,#464,.T.);
#573=EDGE_LOOP('',(#572));
#574=FACE_BOUND('',#573,.T.);
#575=ADVANCED_FACE('',(#571,#574),#568,.T.);
#576=CARTESIAN_POINT('',(0.0,0.0,0.0));
#577=DIRECTION('',(-1.0,0.0,0.0));
#578=DIRECTION('',(0.0,-1.0,0.0));
#579=AXIS2_PLACEMENT_3D('',#576,#577,#578);
#580=CYLINDRICAL_SURFACE('',#579,19.000000000000007);
#581=ORIENTED_EDGE('',*,*,#188,.F.);
#582=EDGE_LOOP('',(#581));
#583=FACE_OUTER_BOUND('',#582,.T.);
#584=ORIENTED_EDGE('',*,*,#396,.T.);
#585=EDGE_LOOP('',(#584));
#586=FACE_BOUND('',#585,.T.);
#587=ADVANCED_FACE('',(#583,#586),#580,.F.);
#588=CLOSED_SHELL('',(#95,#115,#135,#155,#175,#203,#223,#251,#271,#291,#311,#331,#351,#371,#383,#411,#428,#440,#468,#488,#508,#528,#548,#563,#575,#587));
#589=MANIFOLD_SOLID_BREP('Volumenk\S\vrper1',#588);
#590=COLOUR_RGB('',0.866666972637177,0.866666972637177,0.882353007793427);
#591=DRAUGHTING_PRE_DEFINED_CURVE_FONT('continuous');
#592=CURVE_STYLE('',#591,POSITIVE_LENGTH_MEASURE(0.100000000000000),#590);
#593=FILL_AREA_STYLE_COLOUR('',#590);
#594=FILL_AREA_STYLE('',(#593));
#595=SURFACE_STYLE_FILL_AREA(#594);
#596=SURFACE_SIDE_STYLE('',(#595));
#597=SURFACE_STYLE_USAGE(.BOTH.,#596);
#598=PRESENTATION_STYLE_ASSIGNMENT((#592,#597));
#599=STYLED_ITEM('',(#598,#640),#589);
#600=COLOUR_RGB('',0.639216005802155,0.639216005802155,0.686275005340576);
#601=DRAUGHTING_PRE_DEFINED_CURVE_FONT('continuous');
#602=CURVE_STYLE('',#601,POSITIVE_LENGTH_MEASURE(0.100000000000000),#600);
#603=FILL_AREA_STYLE_COLOUR('',#600);
#604=FILL_AREA_STYLE('',(#603));
#605=SURFACE_STYLE_FILL_AREA(#604);
#606=SURFACE_SIDE_STYLE('',(#605));
#607=SURFACE_STYLE_USAGE(.BOTH.,#606);
#608=PRESENTATION_STYLE_ASSIGNMENT((#602,#607));
#609=OVER_RIDING_STYLED_ITEM('',(#608),#95,#599);
#610=OVER_RIDING_STYLED_ITEM('',(#608),#115,#599);
#611=OVER_RIDING_STYLED_ITEM('',(#608),#135,#599);
#612=OVER_RIDING_STYLED_ITEM('',(#608),#155,#599);
#613=OVER_RIDING_STYLED_ITEM('',(#608),#175,#599);
#614=OVER_RIDING_STYLED_ITEM('',(#608),#203,#599);
#615=OVER_RIDING_STYLED_ITEM('',(#608),#223,#599);
#616=OVER_RIDING_STYLED_ITEM('',(#608),#251,#599);
#617=OVER_RIDING_STYLED_ITEM('',(#608),#271,#599);
#618=OVER_RIDING_STYLED_ITEM('',(#608),#291,#599);
#619=OVER_RIDING_STYLED_ITEM('',(#608),#311,#599);
#620=OVER_RIDING_STYLED_ITEM('',(#608),#331,#599);
#621=OVER_RIDING_STYLED_ITEM('',(#608),#351,#599);
#622=OVER_RIDING_STYLED_ITEM('',(#608),#371,#599);
#623=OVER_RIDING_STYLED_ITEM('',(#608),#383,#599);
#624=OVER_RIDING_STYLED_ITEM('',(#608),#411,#599);
#625=OVER_RIDING_STYLED_ITEM('',(#608),#428,#599);
#626=OVER_RIDING_STYLED_ITEM('',(#608),#440,#599);
#627=OVER_RIDING_STYLED_ITEM('',(#608),#468,#599);
#628=OVER_RIDING_STYLED_ITEM('',(#608),#488,#599);
#629=OVER_RIDING_STYLED_ITEM('',(#608),#508,#599);
#630=OVER_RIDING_STYLED_ITEM('',(#608),#528,#599);
#631=OVER_RIDING_STYLED_ITEM('',(#608),#548,#599);
#632=OVER_RIDING_STYLED_ITEM('',(#608),#563,#599);
#633=MECHANICAL_DESIGN_GEOMETRIC_PRESENTATION_REPRESENTATION('',(#599,#609,#610,#611,#612,#613,#614,#615,#616,#617,#618,#619,#620,#621,#622,#623,#624,#625,#626,#627,#628,#629,#630,#631,#632),#67);
#634=COLOUR_RGB('Metall - Stahl',0.639216005802155,0.639216005802155,0.686275005340576);
#635=FILL_AREA_STYLE_COLOUR('Metall - Stahl',#634);
#636=FILL_AREA_STYLE('Metall - Stahl',(#635));
#637=SURFACE_STYLE_FILL_AREA(#636);
#638=SURFACE_SIDE_STYLE('Metall - Stahl',(#637));
#639=SURFACE_STYLE_USAGE(.BOTH.,#638);
#640=PRESENTATION_STYLE_ASSIGNMENT((#639));
#641=ADVANCED_BREP_SHAPE_REPRESENTATION('ABSR',(#589),#36);
#642=SHAPE_REPRESENTATION_RELATIONSHIP('SRR','None',#641,#41);
ENDSEC;
END-ISO-10303-21;
