ISO-10303-21;
HEADER;
/****************************************************************
 * Generated by software with PDE/Lib inside                    *
 * PDElib Version v51a, created Thu 12/14/2006                  *
 * International Technegroup Inc. (www.iti-oh.com)              *
 ****************************************************************/
FILE_DESCRIPTION((''),'2;1');
FILE_NAME('T:\\Arbeitspl\S\dtze\\Aushilfe\\KPeters\\3D\\Steps 08_10\\10111\\10111032X300.stp','2010-09-01T12:45:32',('thilbrands'),(''),'Autodesk Inventor 2008','Autodesk Inventor 2008','');
FILE_SCHEMA(('AUTOMOTIVE_DESIGN { 1 0 10303 214 1 1 1 1 }'));
ENDSEC;
DATA;
#5=APPLICATION_CONTEXT('automotive design');
#6=APPLICATION_PROTOCOL_DEFINITION('International Standard','automotive_design',2001,#5);
#7=PRODUCT_CONTEXT('',#5,'mechanical');
#8=PRODUCT('10111032X300','10111032X300',$,(#7));
#9=PRODUCT_RELATED_PRODUCT_CATEGORY('part',$,(#8));
#10=PRODUCT_DEFINITION_FORMATION('',$,#8);
#11=PRODUCT_DEFINITION_CONTEXT('part definition',#5,'design');
#12=PRODUCT_DEFINITION('',$,#10,#11);
#18=(NAMED_UNIT(*)PLANE_ANGLE_UNIT()SI_UNIT($,.RADIAN.));
#19=DIMENSIONAL_EXPONENTS(0.0,0.0,0.0,0.0,0.0,0.0,0.0);
#20=PLANE_ANGLE_MEASURE_WITH_UNIT(PLANE_ANGLE_MEASURE(0.017453292500000),#18);
#24=(CONVERSION_BASED_UNIT('DEGREE',#20)NAMED_UNIT(#19)PLANE_ANGLE_UNIT());
#28=(NAMED_UNIT(*)SI_UNIT($,.STERADIAN.)SOLID_ANGLE_UNIT());
#32=(LENGTH_UNIT()NAMED_UNIT(*)SI_UNIT(.MILLI.,.METRE.));
#34=UNCERTAINTY_MEASURE_WITH_UNIT(LENGTH_MEASURE(0.010000000000000),#32,'DISTANCE_ACCURACY_VALUE','');
#36=(GEOMETRIC_REPRESENTATION_CONTEXT(3)GLOBAL_UNCERTAINTY_ASSIGNED_CONTEXT((#34))GLOBAL_UNIT_ASSIGNED_CONTEXT((#24,#28,#32))REPRESENTATION_CONTEXT('None','None'));
#37=AXIS2_PLACEMENT_3D('',#38,#39,#40);
#38=CARTESIAN_POINT('',(0.0,0.0,0.0));
#39=DIRECTION('',(0.0,0.0,1.0));
#40=DIRECTION('',(1.0,0.0,0.0));
#41=SHAPE_REPRESENTATION('',(#37),#36);
#42=PRODUCT_DEFINITION_SHAPE('','',#12);
#43=SHAPE_DEFINITION_REPRESENTATION(#42,#41);
#49=(NAMED_UNIT(*)PLANE_ANGLE_UNIT()SI_UNIT($,.RADIAN.));
#50=DIMENSIONAL_EXPONENTS(0.0,0.0,0.0,0.0,0.0,0.0,0.0);
#51=PLANE_ANGLE_MEASURE_WITH_UNIT(PLANE_ANGLE_MEASURE(0.017453292500000),#49);
#55=(CONVERSION_BASED_UNIT('DEGREE',#51)NAMED_UNIT(#50)PLANE_ANGLE_UNIT());
#59=(NAMED_UNIT(*)SI_UNIT($,.STERADIAN.)SOLID_ANGLE_UNIT());
#63=(LENGTH_UNIT()NAMED_UNIT(*)SI_UNIT(.MILLI.,.METRE.));
#65=UNCERTAINTY_MEASURE_WITH_UNIT(LENGTH_MEASURE(0.000001000000000),#63,'DISTANCE_ACCURACY_VALUE','');
#67=(GEOMETRIC_REPRESENTATION_CONTEXT(3)GLOBAL_UNCERTAINTY_ASSIGNED_CONTEXT((#65))GLOBAL_UNIT_ASSIGNED_CONTEXT((#55,#59,#63))REPRESENTATION_CONTEXT('','3D'));
#68=CARTESIAN_POINT('',(5.999999999999996,0.0,0.0));
#69=DIRECTION('',(1.0,0.0,0.0));
#70=DIRECTION('',(0.0,1.0,0.0));
#71=AXIS2_PLACEMENT_3D('',#68,#69,#70);
#72=CYLINDRICAL_SURFACE('',#71,24.450000000000003);
#73=CARTESIAN_POINT('',(9.999999999999995,24.450000000000003,0.0));
#74=VERTEX_POINT('',#73);
#75=CARTESIAN_POINT('',(9.999999999999995,0.0,0.0));
#76=DIRECTION('',(1.0,0.0,0.0));
#77=DIRECTION('',(0.0,1.0,0.0));
#78=AXIS2_PLACEMENT_3D('',#75,#76,#77);
#79=CIRCLE('',#78,24.450000000000003);
#80=EDGE_CURVE('',#74,#74,#79,.T.);
#81=ORIENTED_EDGE('',*,*,#80,.F.);
#82=EDGE_LOOP('',(#81));
#83=FACE_OUTER_BOUND('',#82,.T.);
#84=CARTESIAN_POINT('',(1.999999999999996,24.450000000000003,0.0));
#85=VERTEX_POINT('',#84);
#86=CARTESIAN_POINT('',(1.999999999999996,0.0,0.0));
#87=DIRECTION('',(1.0,0.0,0.0));
#88=DIRECTION('',(0.0,1.0,0.0));
#89=AXIS2_PLACEMENT_3D('',#86,#87,#88);
#90=CIRCLE('',#89,24.450000000000003);
#91=EDGE_CURVE('',#85,#85,#90,.T.);
#92=ORIENTED_EDGE('',*,*,#91,.T.);
#93=EDGE_LOOP('',(#92));
#94=FACE_BOUND('',#93,.T.);
#95=ADVANCED_FACE('',(#83,#94),#72,.T.);
#96=CARTESIAN_POINT('',(9.999999999999996,22.475000000000005,0.0));
#97=DIRECTION('',(1.0,0.0,0.0));
#98=DIRECTION('',(0.0,0.0,-1.0));
#99=AXIS2_PLACEMENT_3D('',#96,#97,#98);
#100=PLANE('',#99);
#101=ORIENTED_EDGE('',*,*,#80,.T.);
#102=EDGE_LOOP('',(#101));
#103=FACE_OUTER_BOUND('',#102,.T.);
#104=CARTESIAN_POINT('',(9.999999999999996,20.500000000000004,0.0));
#105=VERTEX_POINT('',#104);
#106=CARTESIAN_POINT('',(9.999999999999996,0.0,0.0));
#107=DIRECTION('',(1.0,0.0,0.0));
#108=DIRECTION('',(0.0,1.0,0.0));
#109=AXIS2_PLACEMENT_3D('',#106,#107,#108);
#110=CIRCLE('',#109,20.500000000000004);
#111=EDGE_CURVE('',#105,#105,#110,.T.);
#112=ORIENTED_EDGE('',*,*,#111,.F.);
#113=EDGE_LOOP('',(#112));
#114=FACE_BOUND('',#113,.T.);
#115=ADVANCED_FACE('',(#103,#114),#100,.T.);
#116=CARTESIAN_POINT('',(11.499999999999995,0.0,0.0));
#117=DIRECTION('',(1.0,0.0,0.0));
#118=DIRECTION('',(0.0,1.0,0.0));
#119=AXIS2_PLACEMENT_3D('',#116,#117,#118);
#120=CYLINDRICAL_SURFACE('',#119,20.500000000000000);
#121=CARTESIAN_POINT('',(12.999999999999993,20.500000000000000,0.0));
#122=VERTEX_POINT('',#121);
#123=CARTESIAN_POINT('',(12.999999999999993,0.0,0.0));
#124=DIRECTION('',(1.0,0.0,0.0));
#125=DIRECTION('',(0.0,1.0,0.0));
#126=AXIS2_PLACEMENT_3D('',#123,#124,#125);
#127=CIRCLE('',#126,20.500000000000000);
#128=EDGE_CURVE('',#122,#122,#127,.T.);
#129=ORIENTED_EDGE('',*,*,#128,.F.);
#130=EDGE_LOOP('',(#129));
#131=FACE_OUTER_BOUND('',#130,.T.);
#132=ORIENTED_EDGE('',*,*,#111,.T.);
#133=EDGE_LOOP('',(#132));
#134=FACE_BOUND('',#133,.T.);
#135=ADVANCED_FACE('',(#131,#134),#120,.T.);
#136=CARTESIAN_POINT('',(13.866025403784432,0.0,0.0));
#137=DIRECTION('',(-1.0,0.0,0.0));
#138=DIRECTION('',(0.0,1.0,0.0));
#139=AXIS2_PLACEMENT_3D('',#136,#137,#138);
#140=CONICAL_SURFACE('',#139,18.999999999999996,60.000000000000007);
#141=CARTESIAN_POINT('',(14.732050807568873,17.499999999999996,0.0));
#142=VERTEX_POINT('',#141);
#143=CARTESIAN_POINT('',(14.732050807568873,0.0,0.0));
#144=DIRECTION('',(1.0,0.0,0.0));
#145=DIRECTION('',(0.0,1.0,0.0));
#146=AXIS2_PLACEMENT_3D('',#143,#144,#145);
#147=CIRCLE('',#146,17.499999999999996);
#148=EDGE_CURVE('',#142,#142,#147,.T.);
#149=ORIENTED_EDGE('',*,*,#148,.F.);
#150=EDGE_LOOP('',(#149));
#151=FACE_OUTER_BOUND('',#150,.T.);
#152=ORIENTED_EDGE('',*,*,#128,.T.);
#153=EDGE_LOOP('',(#152));
#154=FACE_BOUND('',#153,.T.);
#155=ADVANCED_FACE('',(#151,#154),#140,.T.);
#156=CARTESIAN_POINT('',(30.866025403784434,0.0,0.0));
#157=DIRECTION('',(1.0,0.0,0.0));
#158=DIRECTION('',(0.0,1.0,0.0));
#159=AXIS2_PLACEMENT_3D('',#156,#157,#158);
#160=CYLINDRICAL_SURFACE('',#159,17.500000000000000);
#161=CARTESIAN_POINT('',(46.999999999999993,17.500000000000004,0.0));
#162=VERTEX_POINT('',#161);
#163=CARTESIAN_POINT('',(46.999999999999993,0.0,0.0));
#164=DIRECTION('',(1.0,0.0,0.0));
#165=DIRECTION('',(0.0,1.0,0.0));
#166=AXIS2_PLACEMENT_3D('',#163,#164,#165);
#167=CIRCLE('',#166,17.500000000000004);
#168=EDGE_CURVE('',#162,#162,#167,.T.);
#169=ORIENTED_EDGE('',*,*,#168,.F.);
#170=EDGE_LOOP('',(#169));
#171=FACE_OUTER_BOUND('',#170,.T.);
#172=ORIENTED_EDGE('',*,*,#148,.T.);
#173=EDGE_LOOP('',(#172));
#174=FACE_BOUND('',#173,.T.);
#175=ADVANCED_FACE('',(#171,#174),#160,.T.);
#176=CARTESIAN_POINT('',(46.999999999999993,16.750000000000007,0.0));
#177=DIRECTION('',(1.0,0.0,0.0));
#178=DIRECTION('',(0.0,0.0,-1.0));
#179=AXIS2_PLACEMENT_3D('',#176,#177,#178);
#180=PLANE('',#179);
#181=ORIENTED_EDGE('',*,*,#168,.T.);
#182=EDGE_LOOP('',(#181));
#183=FACE_OUTER_BOUND('',#182,.T.);
#184=CARTESIAN_POINT('',(46.999999999999993,16.000000000000011,0.0));
#185=VERTEX_POINT('',#184);
#186=CARTESIAN_POINT('',(46.999999999999993,0.0,0.0));
#187=DIRECTION('',(1.0,0.0,0.0));
#188=DIRECTION('',(0.0,1.0,0.0));
#189=AXIS2_PLACEMENT_3D('',#186,#187,#188);
#190=CIRCLE('',#189,16.000000000000011);
#191=EDGE_CURVE('',#185,#185,#190,.T.);
#192=ORIENTED_EDGE('',*,*,#191,.F.);
#193=EDGE_LOOP('',(#192));
#194=FACE_BOUND('',#193,.T.);
#195=ADVANCED_FACE('',(#183,#194),#180,.T.);
#196=CARTESIAN_POINT('',(25.446499999999993,0.0,0.0));
#197=DIRECTION('',(1.0,0.0,0.0));
#198=DIRECTION('',(0.0,1.0,0.0));
#199=AXIS2_PLACEMENT_3D('',#196,#197,#198);
#200=CYLINDRICAL_SURFACE('',#199,16.000000000000004);
#201=CARTESIAN_POINT('',(3.892999999999995,15.999999999999996,0.0));
#202=VERTEX_POINT('',#201);
#203=CARTESIAN_POINT('',(3.892999999999995,0.0,0.0));
#204=DIRECTION('',(1.0,0.0,0.0));
#205=DIRECTION('',(0.0,1.0,0.0));
#206=AXIS2_PLACEMENT_3D('',#203,#204,#205);
#207=CIRCLE('',#206,15.999999999999996);
#208=EDGE_CURVE('',#202,#202,#207,.T.);
#209=ORIENTED_EDGE('',*,*,#208,.F.);
#210=EDGE_LOOP('',(#209));
#211=FACE_OUTER_BOUND('',#210,.T.);
#212=ORIENTED_EDGE('',*,*,#191,.T.);
#213=EDGE_LOOP('',(#212));
#214=FACE_BOUND('',#213,.T.);
#215=ADVANCED_FACE('',(#211,#214),#200,.F.);
#216=CARTESIAN_POINT('',(3.892999999999995,0.0,0.0));
#217=DIRECTION('',(1.0,0.0,0.0));
#218=DIRECTION('',(0.0,0.0,-1.0));
#219=AXIS2_PLACEMENT_3D('',#216,#217,#218);
#220=TOROIDAL_SURFACE('',#219,16.499999999999993,0.499999999999998);
#221=CARTESIAN_POINT('',(3.392999999999997,16.499999999999993,0.0));
#222=VERTEX_POINT('',#221);
#223=CARTESIAN_POINT('',(3.392999999999997,0.0,0.0));
#224=DIRECTION('',(1.0,0.0,0.0));
#225=DIRECTION('',(0.0,1.0,0.0));
#226=AXIS2_PLACEMENT_3D('',#223,#224,#225);
#227=CIRCLE('',#226,16.499999999999993);
#228=EDGE_CURVE('',#222,#222,#227,.T.);
#229=ORIENTED_EDGE('',*,*,#228,.F.);
#230=EDGE_LOOP('',(#229));
#231=FACE_OUTER_BOUND('',#230,.T.);
#232=ORIENTED_EDGE('',*,*,#208,.T.);
#233=EDGE_LOOP('',(#232));
#234=FACE_BOUND('',#233,.T.);
#235=ADVANCED_FACE('',(#231,#234),#220,.T.);
#236=CARTESIAN_POINT('',(3.392999999999997,16.658000498206555,0.0));
#237=DIRECTION('',(-1.0,0.0,0.0));
#238=DIRECTION('',(0.0,0.0,1.0));
#239=AXIS2_PLACEMENT_3D('',#236,#237,#238);
#240=PLANE('',#239);
#241=CARTESIAN_POINT('',(3.392999999999997,16.816000996413116,0.0));
#242=VERTEX_POINT('',#241);
#243=CARTESIAN_POINT('',(3.392999999999997,0.0,0.0));
#244=DIRECTION('',(1.0,0.0,0.0));
#245=DIRECTION('',(0.0,1.0,0.0));
#246=AXIS2_PLACEMENT_3D('',#243,#244,#245);
#247=CIRCLE('',#246,16.816000996413116);
#248=EDGE_CURVE('',#242,#242,#247,.T.);
#249=ORIENTED_EDGE('',*,*,#248,.F.);
#250=EDGE_LOOP('',(#249));
#251=FACE_OUTER_BOUND('',#250,.T.);
#252=ORIENTED_EDGE('',*,*,#228,.T.);
#253=EDGE_LOOP('',(#252));
#254=FACE_BOUND('',#253,.T.);
#255=ADVANCED_FACE('',(#251,#254),#240,.T.);
#256=CARTESIAN_POINT('',(4.392999999999997,0.0,0.0));
#257=DIRECTION('',(1.0,0.0,0.0));
#258=DIRECTION('',(0.0,0.0,-1.0));
#259=AXIS2_PLACEMENT_3D('',#256,#257,#258);
#260=TOROIDAL_SURFACE('',#259,16.816000996413116,1.000000000000000);
#261=CARTESIAN_POINT('',(3.706623188405794,17.543247084409312,0.0));
#262=VERTEX_POINT('',#261);
#263=CARTESIAN_POINT('',(3.706623188405794,0.0,0.0));
#264=DIRECTION('',(1.0,0.0,0.0));
#265=DIRECTION('',(0.0,1.0,0.0));
#266=AXIS2_PLACEMENT_3D('',#263,#264,#265);
#267=CIRCLE('',#266,17.543247084409312);
#268=EDGE_CURVE('',#262,#262,#267,.T.);
#269=ORIENTED_EDGE('',*,*,#268,.F.);
#270=EDGE_LOOP('',(#269));
#271=FACE_OUTER_BOUND('',#270,.T.);
#272=ORIENTED_EDGE('',*,*,#248,.T.);
#273=EDGE_LOOP('',(#272));
#274=FACE_BOUND('',#273,.T.);
#275=ADVANCED_FACE('',(#271,#274),#260,.T.);
#276=CARTESIAN_POINT('',(0.758474576271184,-2.623381E-015,21.422239459634632));
#277=CARTESIAN_POINT('',(2.541847397816230,-2.755269E-015,22.499220444375059));
#278=CARTESIAN_POINT('',(3.891435410783837,-2.560910E-015,20.912110222187533));
#279=CARTESIAN_POINT('',(5.241023423751445,-2.366552E-015,19.325000000000003));
#280=CARTESIAN_POINT('',(3.891435410783837,-2.172193E-015,17.737889777812473));
#281=CARTESIAN_POINT('',(2.541847397816231,-1.977835E-015,16.150779555624947));
#282=CARTESIAN_POINT('',(0.758474576271184,-2.109723E-015,17.227760540365374));
#283=CARTESIAN_POINT('',(0.758474576271184,-21.422239459634632,21.422239459634625));
#284=CARTESIAN_POINT('',(2.541847397816230,-22.499220444375059,22.499220444375052));
#285=CARTESIAN_POINT('',(3.891435410783836,-20.912110222187533,20.912110222187525));
#286=CARTESIAN_POINT('',(5.241023423751445,-19.325000000000003,19.324999999999996));
#287=CARTESIAN_POINT('',(3.891435410783836,-17.737889777812473,17.737889777812466));
#288=CARTESIAN_POINT('',(2.541847397816231,-16.150779555624947,16.150779555624940));
#289=CARTESIAN_POINT('',(0.758474576271184,-17.227760540365374,17.227760540365367));
#290=CARTESIAN_POINT('',(0.758474576271184,-21.422239459634632,-2.623381E-015));
#291=CARTESIAN_POINT('',(2.541847397816230,-22.499220444375059,-2.755269E-015));
#292=CARTESIAN_POINT('',(3.891435410783837,-20.912110222187533,-2.560910E-015));
#293=CARTESIAN_POINT('',(5.241023423751445,-19.325000000000003,-2.366552E-015));
#294=CARTESIAN_POINT('',(3.891435410783837,-17.737889777812473,-2.172193E-015));
#295=CARTESIAN_POINT('',(2.541847397816231,-16.150779555624947,-1.977835E-015));
#296=CARTESIAN_POINT('',(0.758474576271184,-17.227760540365374,-2.109723E-015));
#297=CARTESIAN_POINT('',(0.758474576271184,-21.422239459634625,-21.422239459634632));
#298=CARTESIAN_POINT('',(2.541847397816230,-22.499220444375052,-22.499220444375059));
#299=CARTESIAN_POINT('',(3.891435410783836,-20.912110222187525,-20.912110222187533));
#300=CARTESIAN_POINT('',(5.241023423751445,-19.324999999999996,-19.325000000000003));
#301=CARTESIAN_POINT('',(3.891435410783836,-17.737889777812466,-17.737889777812473));
#302=CARTESIAN_POINT('',(2.541847397816231,-16.150779555624940,-16.150779555624947));
#303=CARTESIAN_POINT('',(0.758474576271184,-17.227760540365367,-17.227760540365374));
#304=CARTESIAN_POINT('',(0.758474576271184,2.623381E-015,-21.422239459634632));
#305=CARTESIAN_POINT('',(2.541847397816230,2.755269E-015,-22.499220444375059));
#306=CARTESIAN_POINT('',(3.891435410783837,2.560910E-015,-20.912110222187533));
#307=CARTESIAN_POINT('',(5.241023423751445,2.366552E-015,-19.325000000000003));
#308=CARTESIAN_POINT('',(3.891435410783837,2.172193E-015,-17.737889777812473));
#309=CARTESIAN_POINT('',(2.541847397816231,1.977835E-015,-16.150779555624947));
#310=CARTESIAN_POINT('',(0.758474576271184,2.109723E-015,-17.227760540365374));
#311=CARTESIAN_POINT('',(0.758474576271184,21.422239459634632,-21.422239459634625));
#312=CARTESIAN_POINT('',(2.541847397816230,22.499220444375059,-22.499220444375052));
#313=CARTESIAN_POINT('',(3.891435410783836,20.912110222187533,-20.912110222187525));
#314=CARTESIAN_POINT('',(5.241023423751445,19.325000000000003,-19.324999999999996));
#315=CARTESIAN_POINT('',(3.891435410783836,17.737889777812473,-17.737889777812466));
#316=CARTESIAN_POINT('',(2.541847397816231,16.150779555624947,-16.150779555624940));
#317=CARTESIAN_POINT('',(0.758474576271184,17.227760540365374,-17.227760540365367));
#318=CARTESIAN_POINT('',(0.758474576271184,21.422239459634632,2.623381E-015));
#319=CARTESIAN_POINT('',(2.541847397816230,22.499220444375059,2.755269E-015));
#320=CARTESIAN_POINT('',(3.891435410783837,20.912110222187533,2.560910E-015));
#321=CARTESIAN_POINT('',(5.241023423751445,19.325000000000003,2.366552E-015));
#322=CARTESIAN_POINT('',(3.891435410783837,17.737889777812473,2.172193E-015));
#323=CARTESIAN_POINT('',(2.541847397816231,16.150779555624947,1.977835E-015));
#324=CARTESIAN_POINT('',(0.758474576271184,17.227760540365374,2.109723E-015));
#325=CARTESIAN_POINT('',(0.758474576271184,21.422239459634625,21.422239459634632));
#326=CARTESIAN_POINT('',(2.541847397816230,22.499220444375052,22.499220444375059));
#327=CARTESIAN_POINT('',(3.891435410783836,20.912110222187525,20.912110222187533));
#328=CARTESIAN_POINT('',(5.241023423751445,19.324999999999996,19.325000000000003));
#329=CARTESIAN_POINT('',(3.891435410783836,17.737889777812466,17.737889777812473));
#330=CARTESIAN_POINT('',(2.541847397816231,16.150779555624940,16.150779555624947));
#331=CARTESIAN_POINT('',(0.758474576271184,17.227760540365367,17.227760540365374));
#332=CARTESIAN_POINT('',(0.758474576271184,-2.623381E-015,21.422239459634632));
#333=CARTESIAN_POINT('',(2.541847397816230,-2.755269E-015,22.499220444375059));
#334=CARTESIAN_POINT('',(3.891435410783837,-2.560910E-015,20.912110222187533));
#335=CARTESIAN_POINT('',(5.241023423751445,-2.366552E-015,19.325000000000003));
#336=CARTESIAN_POINT('',(3.891435410783837,-2.172193E-015,17.737889777812473));
#337=CARTESIAN_POINT('',(2.541847397816231,-1.977835E-015,16.150779555624947));
#338=CARTESIAN_POINT('',(0.758474576271184,-2.109723E-015,17.227760540365374));
#346=(BOUNDED_SURFACE()B_SPLINE_SURFACE(2,2,((#276,#283,#290,#297,#304,#311,#318,#325,#332),(#277,#284,#291,#298,#305,#312,#319,#326,#333),(#278,#285,#292,#299,#306,#313,#320,#327,#334),(#279,#286,#293,#300,#307,#314,#321,#328,#335),(#280,#287,#294,#301,#308,#315,#322,#329,#336),(#281,#288,#295,#302,#309,#316,#323,#330,#337),(#282,#289,#296,#303,#310,#317,#324,#331,#338)),.UNSPECIFIED.,.F.,.T.,.U.)B_SPLINE_SURFACE_WITH_KNOTS((3,2,2,3),(3,2,2,2,3),(-0.543283092341541,0.866103187082751,2.275489466507043,3.684875745931334),(0.0,1.570796326794897,3.141592653589793,4.712388980384690,6.283185307179586),.UNSPECIFIED.)GEOMETRIC_REPRESENTATION_ITEM()RATIONAL_B_SPLINE_SURFACE(((1.0,0.707106781186548,1.0,0.707106781186548,1.0,0.707106781186548,1.0,0.707106781186548,1.0),(0.761810371748506,0.538681279841613,0.761810371748506,0.538681279841613,0.761810371748506,0.538681279841613,0.761810371748506,0.538681279841613,0.761810371748506),(1.0,0.707106781186548,1.0,0.707106781186548,1.0,0.707106781186548,1.0,0.707106781186548,1.0),(0.761810371748508,0.538681279841615,0.761810371748508,0.538681279841615,0.761810371748508,0.538681279841615,0.761810371748508,0.538681279841615,0.761810371748508),(1.0,0.707106781186548,1.0,0.707106781186548,1.0,0.707106781186548,1.0,0.707106781186548,1.0),(0.761810371748506,0.538681279841613,0.761810371748506,0.538681279841613,0.761810371748506,0.538681279841613,0.761810371748506,0.538681279841613,0.761810371748506),(1.0,0.707106781186548,1.0,0.707106781186548,1.0,0.707106781186548,1.0,0.707106781186548,1.0)))REPRESENTATION_ITEM('')SURFACE());
#347=CARTESIAN_POINT('',(0.758474576271183,21.422239459634632,0.0));
#348=VERTEX_POINT('',#347);
#349=CARTESIAN_POINT('',(0.758474576271183,0.0,0.0));
#350=DIRECTION('',(1.0,0.0,0.0));
#351=DIRECTION('',(0.0,1.0,0.0));
#352=AXIS2_PLACEMENT_3D('',#349,#350,#351);
#353=CIRCLE('',#352,21.422239459634632);
#354=EDGE_CURVE('',#348,#348,#353,.T.);
#355=ORIENTED_EDGE('',*,*,#354,.F.);
#356=EDGE_LOOP('',(#355));
#357=FACE_OUTER_BOUND('',#356,.T.);
#358=ORIENTED_EDGE('',*,*,#268,.T.);
#359=EDGE_LOOP('',(#358));
#360=FACE_BOUND('',#359,.T.);
#361=ADVANCED_FACE('',(#357,#360),#346,.T.);
#362=CARTESIAN_POINT('',(0.499999999999996,0.0,0.0));
#363=DIRECTION('',(1.0,0.0,0.0));
#364=DIRECTION('',(0.0,0.0,-1.0));
#365=AXIS2_PLACEMENT_3D('',#362,#363,#364);
#366=TOROIDAL_SURFACE('',#365,21.850247512621294,0.500000000000000);
#367=CARTESIAN_POINT('',(-4.024558E-015,21.850247512621294,0.0));
#368=VERTEX_POINT('',#367);
#369=CARTESIAN_POINT('',(-3.885781E-015,0.0,0.0));
#370=DIRECTION('',(1.0,0.0,0.0));
#371=DIRECTION('',(0.0,1.0,0.0));
#372=AXIS2_PLACEMENT_3D('',#369,#370,#371);
#373=CIRCLE('',#372,21.850247512621294);
#374=EDGE_CURVE('',#368,#368,#373,.T.);
#375=ORIENTED_EDGE('',*,*,#374,.F.);
#376=EDGE_LOOP('',(#375));
#377=FACE_OUTER_BOUND('',#376,.T.);
#378=ORIENTED_EDGE('',*,*,#354,.T.);
#379=EDGE_LOOP('',(#378));
#380=FACE_BOUND('',#379,.T.);
#381=ADVANCED_FACE('',(#377,#380),#366,.T.);
#382=CARTESIAN_POINT('',(-4.198031E-015,22.690342816884783,0.0));
#383=DIRECTION('',(-1.0,0.0,0.0));
#384=DIRECTION('',(0.0,0.0,1.0));
#385=AXIS2_PLACEMENT_3D('',#382,#383,#384);
#386=PLANE('',#385);
#387=CARTESIAN_POINT('',(-4.371503E-015,23.530438121148279,0.0));
#388=VERTEX_POINT('',#387);
#389=CARTESIAN_POINT('',(-4.440892E-015,0.0,0.0));
#390=DIRECTION('',(1.0,0.0,0.0));
#391=DIRECTION('',(0.0,1.0,0.0));
#392=AXIS2_PLACEMENT_3D('',#389,#390,#391);
#393=CIRCLE('',#392,23.530438121148279);
#394=EDGE_CURVE('',#388,#388,#393,.T.);
#395=ORIENTED_EDGE('',*,*,#394,.F.);
#396=EDGE_LOOP('',(#395));
#397=FACE_OUTER_BOUND('',#396,.T.);
#398=ORIENTED_EDGE('',*,*,#374,.T.);
#399=EDGE_LOOP('',(#398));
#400=FACE_BOUND('',#399,.T.);
#401=ADVANCED_FACE('',(#397,#400),#386,.T.);
#402=CARTESIAN_POINT('',(0.499999999999996,0.0,0.0));
#403=DIRECTION('',(1.0,0.0,0.0));
#404=DIRECTION('',(0.0,0.0,-1.0));
#405=AXIS2_PLACEMENT_3D('',#402,#403,#404);
#406=TOROIDAL_SURFACE('',#405,23.530438121148279,0.500000000000008);
#407=CARTESIAN_POINT('',(0.370590477448736,24.013401034292809,0.0));
#408=VERTEX_POINT('',#407);
#409=CARTESIAN_POINT('',(0.370590477448736,0.0,0.0));
#410=DIRECTION('',(1.0,0.0,0.0));
#411=DIRECTION('',(0.0,1.0,0.0));
#412=AXIS2_PLACEMENT_3D('',#409,#410,#411);
#413=CIRCLE('',#412,24.013401034292809);
#414=EDGE_CURVE('',#408,#408,#413,.T.);
#415=ORIENTED_EDGE('',*,*,#414,.F.);
#416=EDGE_LOOP('',(#415));
#417=FACE_OUTER_BOUND('',#416,.T.);
#418=ORIENTED_EDGE('',*,*,#394,.T.);
#419=EDGE_LOOP('',(#418));
#420=FACE_BOUND('',#419,.T.);
#421=ADVANCED_FACE('',(#417,#420),#406,.T.);
#422=CARTESIAN_POINT('',(1.185295238724366,0.0,0.0));
#423=DIRECTION('',(1.0,0.0,0.0));
#424=DIRECTION('',(0.0,1.0,0.0));
#425=AXIS2_PLACEMENT_3D('',#422,#423,#424);
#426=CONICAL_SURFACE('',#425,24.231700517146404,15.000000000000071);
#427=ORIENTED_EDGE('',*,*,#91,.F.);
#428=EDGE_LOOP('',(#427));
#429=FACE_OUTER_BOUND('',#428,.T.);
#430=ORIENTED_EDGE('',*,*,#414,.T.);
#431=EDGE_LOOP('',(#430));
#432=FACE_BOUND('',#431,.T.);
#433=ADVANCED_FACE('',(#429,#432),#426,.T.);
#434=CLOSED_SHELL('',(#95,#115,#135,#155,#175,#195,#215,#235,#255,#275,#361,#381,#401,#421,#433));
#435=MANIFOLD_SOLID_BREP('',#434);
#436=COLOUR_RGB('Standard',0.752941012382507,0.752941012382507,0.752941012382507);
#437=FILL_AREA_STYLE_COLOUR('Standard',#436);
#438=FILL_AREA_STYLE('Standard',(#437));
#439=SURFACE_STYLE_FILL_AREA(#438);
#440=SURFACE_SIDE_STYLE('Standard',(#439));
#441=SURFACE_STYLE_USAGE(.BOTH.,#440);
#442=PRESENTATION_STYLE_ASSIGNMENT((#441));
#443=STYLED_ITEM('',(#442),#435);
#444=MECHANICAL_DESIGN_GEOMETRIC_PRESENTATION_REPRESENTATION('',(#443),#36);
#445=ADVANCED_BREP_SHAPE_REPRESENTATION('ABSR',(#435),#36);
#446=SHAPE_REPRESENTATION_RELATIONSHIP('SRR','None',#445,#41);
ENDSEC;
END-ISO-10303-21;
