ISO-10303-21;
HEADER;
/* Generated by software containing ST-Developer
 * from STEP Tools, Inc. (www.steptools.com) 
 */

FILE_DESCRIPTION(
/* description */ (''),
/* implementation_level */ '2;1');

FILE_NAME(
/* name */ 'Z:\\Geberit\\Export\\NewStep\\31933.stp',
/* time_stamp */ '2014-04-01T20:18:03+02:00',
/* author */ ('bruh'),
/* organization */ (''),
/* preprocessor_version */ 'ST-DEVELOPER v15.2',
/* originating_system */ 'Autodesk Inventor 2014',
/* authorisation */ '');

FILE_SCHEMA (('AUTOMOTIVE_DESIGN { 1 0 10303 214 3 1 1 }'));
ENDSEC;

DATA;
#10=SHAPE_REPRESENTATION_RELATIONSHIP('SRR','None',#457,#11);
#11=ADVANCED_BREP_SHAPE_REPRESENTATION($,(#255),#448);
#12=STYLED_ITEM($,(#465),#255);
#13=CYLINDRICAL_SURFACE($,#265,7.50000000000001);
#14=CYLINDRICAL_SURFACE($,#270,6.50000000000001);
#15=CYLINDRICAL_SURFACE($,#276,10.4775);
#16=CYLINDRICAL_SURFACE($,#281,9.00000000000002);
#17=FACE_BOUND($,#69,.T.);
#18=FACE_BOUND($,#72,.T.);
#19=FACE_BOUND($,#74,.T.);
#20=FACE_BOUND($,#76,.T.);
#21=FACE_BOUND($,#78,.T.);
#22=FACE_BOUND($,#80,.T.);
#23=FACE_BOUND($,#82,.T.);
#24=FACE_BOUND($,#84,.T.);
#25=FACE_BOUND($,#85,.T.);
#26=FACE_BOUND($,#86,.T.);
#27=FACE_BOUND($,#88,.T.);
#28=FACE_BOUND($,#90,.T.);
#29=FACE_BOUND($,#91,.T.);
#30=FACE_BOUND($,#92,.T.);
#31=CIRCLE($,#263,9.10000000000004);
#32=CIRCLE($,#266,7.50000000000002);
#33=CIRCLE($,#267,7.5);
#34=CIRCLE($,#269,6.5);
#35=CIRCLE($,#271,6.50000000000001);
#36=CIRCLE($,#273,8.97749999999999);
#37=CIRCLE($,#275,10.4775);
#38=CIRCLE($,#277,10.4775);
#39=CIRCLE($,#280,9.00000000000003);
#40=CIRCLE($,#282,9.00000000000001);
#41=CIRCLE($,#284,8.60000000000002);
#42=CONICAL_SURFACE($,#262,11.4782032302755,75.);
#43=CONICAL_SURFACE($,#268,7.00000000000001,44.9999999999999);
#44=CONICAL_SURFACE($,#274,9.7275,44.9999999999998);
#45=CONICAL_SURFACE($,#278,12.1669532302755,74.9999999999999);
#46=CONICAL_SURFACE($,#283,8.80000000000002,45.);
#47=FACE_OUTER_BOUND($,#63,.T.);
#48=FACE_OUTER_BOUND($,#64,.T.);
#49=FACE_OUTER_BOUND($,#65,.T.);
#50=FACE_OUTER_BOUND($,#66,.T.);
#51=FACE_OUTER_BOUND($,#67,.T.);
#52=FACE_OUTER_BOUND($,#68,.T.);
#53=FACE_OUTER_BOUND($,#70,.T.);
#54=FACE_OUTER_BOUND($,#71,.T.);
#55=FACE_OUTER_BOUND($,#73,.T.);
#56=FACE_OUTER_BOUND($,#75,.T.);
#57=FACE_OUTER_BOUND($,#77,.T.);
#58=FACE_OUTER_BOUND($,#79,.T.);
#59=FACE_OUTER_BOUND($,#81,.T.);
#60=FACE_OUTER_BOUND($,#83,.T.);
#61=FACE_OUTER_BOUND($,#87,.T.);
#62=FACE_OUTER_BOUND($,#89,.T.);
#63=EDGE_LOOP($,(#169,#170,#171,#172));
#64=EDGE_LOOP($,(#173,#174,#175,#176));
#65=EDGE_LOOP($,(#177,#178,#179,#180));
#66=EDGE_LOOP($,(#181,#182,#183,#184));
#67=EDGE_LOOP($,(#185,#186,#187,#188));
#68=EDGE_LOOP($,(#189));
#69=EDGE_LOOP($,(#190,#191,#192,#193,#194,#195));
#70=EDGE_LOOP($,(#196,#197,#198,#199));
#71=EDGE_LOOP($,(#200));
#72=EDGE_LOOP($,(#201));
#73=EDGE_LOOP($,(#202));
#74=EDGE_LOOP($,(#203));
#75=EDGE_LOOP($,(#204));
#76=EDGE_LOOP($,(#205));
#77=EDGE_LOOP($,(#206));
#78=EDGE_LOOP($,(#207));
#79=EDGE_LOOP($,(#208));
#80=EDGE_LOOP($,(#209));
#81=EDGE_LOOP($,(#210));
#82=EDGE_LOOP($,(#211));
#83=EDGE_LOOP($,(#212,#213,#214,#215,#216,#217));
#84=EDGE_LOOP($,(#218));
#85=EDGE_LOOP($,(#219));
#86=EDGE_LOOP($,(#220));
#87=EDGE_LOOP($,(#221));
#88=EDGE_LOOP($,(#222));
#89=EDGE_LOOP($,(#223));
#90=EDGE_LOOP($,(#224));
#91=EDGE_LOOP($,(#225));
#92=EDGE_LOOP($,(#226));
#93=LINE($,#360,#99);
#94=LINE($,#365,#100);
#95=LINE($,#372,#101);
#96=LINE($,#382,#102);
#97=LINE($,#392,#103);
#98=LINE($,#402,#104);
#99=VECTOR($,#290,6.62014947261625);
#100=VECTOR($,#291,6.62014947261624);
#101=VECTOR($,#294,6.62014947261625);
#102=VECTOR($,#297,6.62014947261624);
#103=VECTOR($,#300,6.62014947261624);
#104=VECTOR($,#303,6.62014947261624);
#105=(
BOUNDED_CURVE()
B_SPLINE_CURVE(2,(#356,#357,#358),.UNSPECIFIED.,.F.,.F.)
B_SPLINE_CURVE_WITH_KNOTS((3,3),(0.,1.3892073891951),.UNSPECIFIED.)
CURVE()
GEOMETRIC_REPRESENTATION_ITEM()
RATIONAL_B_SPLINE_CURVE((1.,1.15470053837925,1.))
REPRESENTATION_ITEM($)
);
#106=(
BOUNDED_CURVE()
B_SPLINE_CURVE(2,(#362,#363,#364),.UNSPECIFIED.,.F.,.F.)
B_SPLINE_CURVE_WITH_KNOTS((3,3),(0.,1.38920738919512),.UNSPECIFIED.)
CURVE()
GEOMETRIC_REPRESENTATION_ITEM()
RATIONAL_B_SPLINE_CURVE((1.,1.15470053837926,1.))
REPRESENTATION_ITEM($)
);
#107=(
BOUNDED_CURVE()
B_SPLINE_CURVE(2,(#368,#369,#370),.UNSPECIFIED.,.F.,.F.)
B_SPLINE_CURVE_WITH_KNOTS((3,3),(0.,1.38920738919512),.UNSPECIFIED.)
CURVE()
GEOMETRIC_REPRESENTATION_ITEM()
RATIONAL_B_SPLINE_CURVE((1.,1.15470053837925,1.))
REPRESENTATION_ITEM($)
);
#108=(
BOUNDED_CURVE()
B_SPLINE_CURVE(2,(#373,#374,#375),.UNSPECIFIED.,.F.,.F.)
B_SPLINE_CURVE_WITH_KNOTS((3,3),(0.,1.38920738919512),.UNSPECIFIED.)
CURVE()
GEOMETRIC_REPRESENTATION_ITEM()
RATIONAL_B_SPLINE_CURVE((1.,1.15470053837926,1.))
REPRESENTATION_ITEM($)
);
#109=(
BOUNDED_CURVE()
B_SPLINE_CURVE(2,(#378,#379,#380),.UNSPECIFIED.,.F.,.F.)
B_SPLINE_CURVE_WITH_KNOTS((3,3),(0.,1.38920738919512),.UNSPECIFIED.)
CURVE()
GEOMETRIC_REPRESENTATION_ITEM()
RATIONAL_B_SPLINE_CURVE((1.,1.15470053837925,1.))
REPRESENTATION_ITEM($)
);
#110=(
BOUNDED_CURVE()
B_SPLINE_CURVE(2,(#383,#384,#385),.UNSPECIFIED.,.F.,.F.)
B_SPLINE_CURVE_WITH_KNOTS((3,3),(0.,1.38920738919512),.UNSPECIFIED.)
CURVE()
GEOMETRIC_REPRESENTATION_ITEM()
RATIONAL_B_SPLINE_CURVE((1.,1.15470053837925,1.))
REPRESENTATION_ITEM($)
);
#111=(
BOUNDED_CURVE()
B_SPLINE_CURVE(2,(#388,#389,#390),.UNSPECIFIED.,.F.,.F.)
B_SPLINE_CURVE_WITH_KNOTS((3,3),(0.,1.38920738919512),.UNSPECIFIED.)
CURVE()
GEOMETRIC_REPRESENTATION_ITEM()
RATIONAL_B_SPLINE_CURVE((1.,1.15470053837925,1.))
REPRESENTATION_ITEM($)
);
#112=(
BOUNDED_CURVE()
B_SPLINE_CURVE(2,(#393,#394,#395),.UNSPECIFIED.,.F.,.F.)
B_SPLINE_CURVE_WITH_KNOTS((3,3),(0.,1.38920738919512),.UNSPECIFIED.)
CURVE()
GEOMETRIC_REPRESENTATION_ITEM()
RATIONAL_B_SPLINE_CURVE((1.,1.15470053837926,1.))
REPRESENTATION_ITEM($)
);
#113=(
BOUNDED_CURVE()
B_SPLINE_CURVE(2,(#398,#399,#400),.UNSPECIFIED.,.F.,.F.)
B_SPLINE_CURVE_WITH_KNOTS((3,3),(0.,1.3892073891951),.UNSPECIFIED.)
CURVE()
GEOMETRIC_REPRESENTATION_ITEM()
RATIONAL_B_SPLINE_CURVE((1.,1.15470053837925,1.))
REPRESENTATION_ITEM($)
);
#114=(
BOUNDED_CURVE()
B_SPLINE_CURVE(2,(#403,#404,#405),.UNSPECIFIED.,.F.,.F.)
B_SPLINE_CURVE_WITH_KNOTS((3,3),(0.,1.38920738919512),.UNSPECIFIED.)
CURVE()
GEOMETRIC_REPRESENTATION_ITEM()
RATIONAL_B_SPLINE_CURVE((1.,1.15470053837925,1.))
REPRESENTATION_ITEM($)
);
#115=(
BOUNDED_CURVE()
B_SPLINE_CURVE(2,(#409,#410,#411),.UNSPECIFIED.,.F.,.F.)
B_SPLINE_CURVE_WITH_KNOTS((3,3),(0.,1.38920738919512),.UNSPECIFIED.)
CURVE()
GEOMETRIC_REPRESENTATION_ITEM()
RATIONAL_B_SPLINE_CURVE((1.,1.15470053837925,1.))
REPRESENTATION_ITEM($)
);
#116=(
BOUNDED_CURVE()
B_SPLINE_CURVE(2,(#413,#414,#415),.UNSPECIFIED.,.F.,.F.)
B_SPLINE_CURVE_WITH_KNOTS((3,3),(0.,1.38920738919511),.UNSPECIFIED.)
CURVE()
GEOMETRIC_REPRESENTATION_ITEM()
RATIONAL_B_SPLINE_CURVE((1.,1.15470053837925,1.))
REPRESENTATION_ITEM($)
);
#117=VERTEX_POINT($,#354);
#118=VERTEX_POINT($,#355);
#119=VERTEX_POINT($,#359);
#120=VERTEX_POINT($,#361);
#121=VERTEX_POINT($,#367);
#122=VERTEX_POINT($,#371);
#123=VERTEX_POINT($,#377);
#124=VERTEX_POINT($,#381);
#125=VERTEX_POINT($,#387);
#126=VERTEX_POINT($,#391);
#127=VERTEX_POINT($,#397);
#128=VERTEX_POINT($,#401);
#129=VERTEX_POINT($,#407);
#130=VERTEX_POINT($,#417);
#131=VERTEX_POINT($,#419);
#132=VERTEX_POINT($,#422);
#133=VERTEX_POINT($,#425);
#134=VERTEX_POINT($,#428);
#135=VERTEX_POINT($,#431);
#136=VERTEX_POINT($,#434);
#137=VERTEX_POINT($,#438);
#138=VERTEX_POINT($,#441);
#139=VERTEX_POINT($,#444);
#140=EDGE_CURVE($,#117,#118,#105,.T.);
#141=EDGE_CURVE($,#119,#117,#93,.T.);
#142=EDGE_CURVE($,#120,#119,#106,.T.);
#143=EDGE_CURVE($,#118,#120,#94,.T.);
#144=EDGE_CURVE($,#121,#117,#107,.T.);
#145=EDGE_CURVE($,#122,#121,#95,.T.);
#146=EDGE_CURVE($,#119,#122,#108,.T.);
#147=EDGE_CURVE($,#123,#121,#109,.T.);
#148=EDGE_CURVE($,#124,#123,#96,.T.);
#149=EDGE_CURVE($,#122,#124,#110,.T.);
#150=EDGE_CURVE($,#125,#123,#111,.T.);
#151=EDGE_CURVE($,#126,#125,#97,.T.);
#152=EDGE_CURVE($,#124,#126,#112,.T.);
#153=EDGE_CURVE($,#127,#125,#113,.T.);
#154=EDGE_CURVE($,#127,#128,#98,.T.);
#155=EDGE_CURVE($,#126,#128,#114,.T.);
#156=EDGE_CURVE($,#129,#129,#31,.T.);
#157=EDGE_CURVE($,#128,#120,#115,.T.);
#158=EDGE_CURVE($,#118,#127,#116,.T.);
#159=EDGE_CURVE($,#130,#130,#32,.T.);
#160=EDGE_CURVE($,#131,#131,#33,.T.);
#161=EDGE_CURVE($,#132,#132,#34,.T.);
#162=EDGE_CURVE($,#133,#133,#35,.T.);
#163=EDGE_CURVE($,#134,#134,#36,.T.);
#164=EDGE_CURVE($,#135,#135,#37,.T.);
#165=EDGE_CURVE($,#136,#136,#38,.T.);
#166=EDGE_CURVE($,#137,#137,#39,.T.);
#167=EDGE_CURVE($,#138,#138,#40,.T.);
#168=EDGE_CURVE($,#139,#139,#41,.T.);
#169=ORIENTED_EDGE($,*,*,#140,.F.);
#170=ORIENTED_EDGE($,*,*,#141,.F.);
#171=ORIENTED_EDGE($,*,*,#142,.F.);
#172=ORIENTED_EDGE($,*,*,#143,.F.);
#173=ORIENTED_EDGE($,*,*,#144,.F.);
#174=ORIENTED_EDGE($,*,*,#145,.F.);
#175=ORIENTED_EDGE($,*,*,#146,.F.);
#176=ORIENTED_EDGE($,*,*,#141,.T.);
#177=ORIENTED_EDGE($,*,*,#147,.F.);
#178=ORIENTED_EDGE($,*,*,#148,.F.);
#179=ORIENTED_EDGE($,*,*,#149,.F.);
#180=ORIENTED_EDGE($,*,*,#145,.T.);
#181=ORIENTED_EDGE($,*,*,#150,.F.);
#182=ORIENTED_EDGE($,*,*,#151,.F.);
#183=ORIENTED_EDGE($,*,*,#152,.F.);
#184=ORIENTED_EDGE($,*,*,#148,.T.);
#185=ORIENTED_EDGE($,*,*,#153,.F.);
#186=ORIENTED_EDGE($,*,*,#154,.T.);
#187=ORIENTED_EDGE($,*,*,#155,.F.);
#188=ORIENTED_EDGE($,*,*,#151,.T.);
#189=ORIENTED_EDGE($,*,*,#156,.F.);
#190=ORIENTED_EDGE($,*,*,#142,.T.);
#191=ORIENTED_EDGE($,*,*,#146,.T.);
#192=ORIENTED_EDGE($,*,*,#149,.T.);
#193=ORIENTED_EDGE($,*,*,#152,.T.);
#194=ORIENTED_EDGE($,*,*,#155,.T.);
#195=ORIENTED_EDGE($,*,*,#157,.T.);
#196=ORIENTED_EDGE($,*,*,#157,.F.);
#197=ORIENTED_EDGE($,*,*,#154,.F.);
#198=ORIENTED_EDGE($,*,*,#158,.F.);
#199=ORIENTED_EDGE($,*,*,#143,.T.);
#200=ORIENTED_EDGE($,*,*,#159,.F.);
#201=ORIENTED_EDGE($,*,*,#160,.T.);
#202=ORIENTED_EDGE($,*,*,#161,.F.);
#203=ORIENTED_EDGE($,*,*,#159,.T.);
#204=ORIENTED_EDGE($,*,*,#162,.F.);
#205=ORIENTED_EDGE($,*,*,#161,.T.);
#206=ORIENTED_EDGE($,*,*,#163,.F.);
#207=ORIENTED_EDGE($,*,*,#162,.T.);
#208=ORIENTED_EDGE($,*,*,#164,.F.);
#209=ORIENTED_EDGE($,*,*,#163,.T.);
#210=ORIENTED_EDGE($,*,*,#165,.F.);
#211=ORIENTED_EDGE($,*,*,#164,.T.);
#212=ORIENTED_EDGE($,*,*,#140,.T.);
#213=ORIENTED_EDGE($,*,*,#158,.T.);
#214=ORIENTED_EDGE($,*,*,#153,.T.);
#215=ORIENTED_EDGE($,*,*,#150,.T.);
#216=ORIENTED_EDGE($,*,*,#147,.T.);
#217=ORIENTED_EDGE($,*,*,#144,.T.);
#218=ORIENTED_EDGE($,*,*,#165,.T.);
#219=ORIENTED_EDGE($,*,*,#166,.F.);
#220=ORIENTED_EDGE($,*,*,#156,.T.);
#221=ORIENTED_EDGE($,*,*,#167,.F.);
#222=ORIENTED_EDGE($,*,*,#166,.T.);
#223=ORIENTED_EDGE($,*,*,#168,.F.);
#224=ORIENTED_EDGE($,*,*,#167,.T.);
#225=ORIENTED_EDGE($,*,*,#160,.F.);
#226=ORIENTED_EDGE($,*,*,#168,.T.);
#227=PLANE($,#257);
#228=PLANE($,#258);
#229=PLANE($,#259);
#230=PLANE($,#260);
#231=PLANE($,#261);
#232=PLANE($,#264);
#233=PLANE($,#272);
#234=PLANE($,#279);
#235=PLANE($,#285);
#236=ADVANCED_FACE($,(#47),#227,.F.);
#237=ADVANCED_FACE($,(#48),#228,.F.);
#238=ADVANCED_FACE($,(#49),#229,.F.);
#239=ADVANCED_FACE($,(#50),#230,.F.);
#240=ADVANCED_FACE($,(#51),#231,.F.);
#241=ADVANCED_FACE($,(#52,#17),#42,.T.);
#242=ADVANCED_FACE($,(#53),#232,.F.);
#243=ADVANCED_FACE($,(#54,#18),#13,.F.);
#244=ADVANCED_FACE($,(#55,#19),#43,.F.);
#245=ADVANCED_FACE($,(#56,#20),#14,.F.);
#246=ADVANCED_FACE($,(#57,#21),#233,.T.);
#247=ADVANCED_FACE($,(#58,#22),#44,.T.);
#248=ADVANCED_FACE($,(#59,#23),#15,.T.);
#249=ADVANCED_FACE($,(#60,#24),#45,.T.);
#250=ADVANCED_FACE($,(#25,#26),#234,.T.);
#251=ADVANCED_FACE($,(#61,#27),#16,.T.);
#252=ADVANCED_FACE($,(#62,#28),#46,.T.);
#253=ADVANCED_FACE($,(#29,#30),#235,.T.);
#254=CLOSED_SHELL($,(#236,#237,#238,#239,#240,#241,#242,#243,#244,#245,
#246,#247,#248,#249,#250,#251,#252,#253));
#255=MANIFOLD_SOLID_BREP('Volumenk\X\F6rper1',#254);
#256=AXIS2_PLACEMENT_3D('placement',#352,#286,#287);
#257=AXIS2_PLACEMENT_3D($,#353,#288,#289);
#258=AXIS2_PLACEMENT_3D($,#366,#292,#293);
#259=AXIS2_PLACEMENT_3D($,#376,#295,#296);
#260=AXIS2_PLACEMENT_3D($,#386,#298,#299);
#261=AXIS2_PLACEMENT_3D($,#396,#301,#302);
#262=AXIS2_PLACEMENT_3D($,#406,#304,#305);
#263=AXIS2_PLACEMENT_3D($,#408,#306,#307);
#264=AXIS2_PLACEMENT_3D($,#412,#308,#309);
#265=AXIS2_PLACEMENT_3D($,#416,#310,#311);
#266=AXIS2_PLACEMENT_3D($,#418,#312,#313);
#267=AXIS2_PLACEMENT_3D($,#420,#314,#315);
#268=AXIS2_PLACEMENT_3D($,#421,#316,#317);
#269=AXIS2_PLACEMENT_3D($,#423,#318,#319);
#270=AXIS2_PLACEMENT_3D($,#424,#320,#321);
#271=AXIS2_PLACEMENT_3D($,#426,#322,#323);
#272=AXIS2_PLACEMENT_3D($,#427,#324,#325);
#273=AXIS2_PLACEMENT_3D($,#429,#326,#327);
#274=AXIS2_PLACEMENT_3D($,#430,#328,#329);
#275=AXIS2_PLACEMENT_3D($,#432,#330,#331);
#276=AXIS2_PLACEMENT_3D($,#433,#332,#333);
#277=AXIS2_PLACEMENT_3D($,#435,#334,#335);
#278=AXIS2_PLACEMENT_3D($,#436,#336,#337);
#279=AXIS2_PLACEMENT_3D($,#437,#338,#339);
#280=AXIS2_PLACEMENT_3D($,#439,#340,#341);
#281=AXIS2_PLACEMENT_3D($,#440,#342,#343);
#282=AXIS2_PLACEMENT_3D($,#442,#344,#345);
#283=AXIS2_PLACEMENT_3D($,#443,#346,#347);
#284=AXIS2_PLACEMENT_3D($,#445,#348,#349);
#285=AXIS2_PLACEMENT_3D($,#446,#350,#351);
#286=DIRECTION('axis',(0.,0.,1.));
#287=DIRECTION('refdir',(1.,0.,0.));
#288=DIRECTION('center_axis',(0.,-0.499999999999999,0.866025403784439));
#289=DIRECTION('ref_axis',(0.,-0.866025403784439,-0.499999999999999));
#290=DIRECTION($,(1.,6.08453061007792E-017,1.0538716156863E-016));
#291=DIRECTION($,(-1.,-1.63034506329283E-017,-6.08453061007792E-017));
#292=DIRECTION('center_axis',(0.,0.500000000000001,0.866025403784438));
#293=DIRECTION('ref_axis',(0.,-0.866025403784438,0.500000000000001));
#294=DIRECTION($,(1.,6.08453061007792E-017,1.0538716156863E-016));
#295=DIRECTION('center_axis',(0.,1.,-3.33066907387547E-016));
#296=DIRECTION('ref_axis',(0.,3.5527136788005E-016,1.));
#297=DIRECTION($,(1.,6.08453061007792E-017,1.0538716156863E-016));
#298=DIRECTION('center_axis',(0.,0.5,-0.866025403784439));
#299=DIRECTION('ref_axis',(0.,0.866025403784439,0.5));
#300=DIRECTION($,(1.,6.08453061007792E-017,1.0538716156863E-016));
#301=DIRECTION('center_axis',(0.,-0.5,-0.866025403784439));
#302=DIRECTION('ref_axis',(0.,0.866025403784439,-0.5));
#303=DIRECTION($,(-1.,-1.63034506329283E-017,6.08453061007792E-017));
#304=DIRECTION('center_axis',(1.,1.21690612201558E-016,0.));
#305=DIRECTION('ref_axis',(-1.0538716156863E-016,0.866025403784439,0.5));
#306=DIRECTION('center_axis',(-1.,-6.08453061007791E-017,1.0538716156863E-016));
#307=DIRECTION('ref_axis',(-1.0538716156863E-016,0.866025403784438,-0.500000000000001));
#308=DIRECTION('center_axis',(0.,-1.,1.22002530178588E-016));
#309=DIRECTION('ref_axis',(0.,-1.77635683940025E-016,-1.));
#310=DIRECTION('center_axis',(-1.,-1.21690612201558E-016,0.));
#311=DIRECTION('ref_axis',(-1.0538716156863E-016,0.866025403784439,0.5));
#312=DIRECTION('center_axis',(-1.,-6.08453061007791E-017,1.0538716156863E-016));
#313=DIRECTION('ref_axis',(-1.0538716156863E-016,0.866025403784438,-0.500000000000001));
#314=DIRECTION('center_axis',(-1.,-6.08453061007791E-017,1.0538716156863E-016));
#315=DIRECTION('ref_axis',(-1.0538716156863E-016,0.866025403784438,-0.500000000000001));
#316=DIRECTION('center_axis',(-1.,-1.21690612201558E-016,0.));
#317=DIRECTION('ref_axis',(-1.0538716156863E-016,0.866025403784439,0.5));
#318=DIRECTION('center_axis',(-1.,-6.08453061007791E-017,1.0538716156863E-016));
#319=DIRECTION('ref_axis',(-1.0538716156863E-016,0.866025403784438,-0.500000000000001));
#320=DIRECTION('center_axis',(-1.,-1.21690612201558E-016,0.));
#321=DIRECTION('ref_axis',(-1.0538716156863E-016,0.866025403784439,0.5));
#322=DIRECTION('center_axis',(-1.,-6.08453061007791E-017,1.0538716156863E-016));
#323=DIRECTION('ref_axis',(-1.0538716156863E-016,0.866025403784438,-0.500000000000001));
#324=DIRECTION('center_axis',(1.,1.21690612201558E-016,0.));
#325=DIRECTION('ref_axis',(0.,0.5,-0.866025403784439));
#326=DIRECTION('center_axis',(-1.,-6.08453061007791E-017,1.0538716156863E-016));
#327=DIRECTION('ref_axis',(-1.0538716156863E-016,0.866025403784438,-0.500000000000001));
#328=DIRECTION('center_axis',(-1.,-1.21690612201558E-016,0.));
#329=DIRECTION('ref_axis',(-1.0538716156863E-016,0.866025403784439,0.5));
#330=DIRECTION('center_axis',(-1.,-6.08453061007791E-017,1.0538716156863E-016));
#331=DIRECTION('ref_axis',(-1.0538716156863E-016,0.866025403784438,-0.500000000000001));
#332=DIRECTION('center_axis',(-1.,-1.21690612201558E-016,0.));
#333=DIRECTION('ref_axis',(-1.0538716156863E-016,0.866025403784439,0.5));
#334=DIRECTION('center_axis',(-1.,-6.08453061007791E-017,1.0538716156863E-016));
#335=DIRECTION('ref_axis',(-1.0538716156863E-016,0.866025403784438,-0.500000000000001));
#336=DIRECTION('center_axis',(-1.,-1.21690612201558E-016,0.));
#337=DIRECTION('ref_axis',(-1.0538716156863E-016,0.866025403784439,0.5));
#338=DIRECTION('center_axis',(-1.,-1.21690612201558E-016,0.));
#339=DIRECTION('ref_axis',(0.,-0.5,0.866025403784439));
#340=DIRECTION('center_axis',(-1.,-6.08453061007791E-017,1.0538716156863E-016));
#341=DIRECTION('ref_axis',(-1.0538716156863E-016,0.866025403784438,-0.500000000000001));
#342=DIRECTION('center_axis',(-1.,-1.21690612201558E-016,0.));
#343=DIRECTION('ref_axis',(-1.0538716156863E-016,0.866025403784439,0.5));
#344=DIRECTION('center_axis',(-1.,-6.08453061007791E-017,1.0538716156863E-016));
#345=DIRECTION('ref_axis',(-1.0538716156863E-016,0.866025403784438,-0.500000000000001));
#346=DIRECTION('center_axis',(1.,1.21690612201558E-016,0.));
#347=DIRECTION('ref_axis',(-1.0538716156863E-016,0.866025403784439,0.5));
#348=DIRECTION('center_axis',(-1.,-1.21690612201558E-016,0.));
#349=DIRECTION('ref_axis',(-1.0538716156863E-016,0.866025403784439,0.5));
#350=DIRECTION('center_axis',(-1.,-1.21690612201558E-016,0.));
#351=DIRECTION('ref_axis',(6.08453061007792E-017,-0.5,0.866025403784439));
#352=CARTESIAN_POINT('',(0.,0.,0.));
#353=CARTESIAN_POINT('Origin',(34.,-6.66133814775094E-015,-13.856406460551));
#354=CARTESIAN_POINT('',(41.8946247425951,-5.55111512312578E-015,-13.856406460551));
#355=CARTESIAN_POINT('',(41.8946247425951,12.,-6.9282032302755));
#356=CARTESIAN_POINT('Ctrl Pts',(41.8946247425951,4.09540235256586E-014,
-13.856406460551));
#357=CARTESIAN_POINT('Ctrl Pts',(42.8228279728706,5.99999999999999,-10.3923048454133));
#358=CARTESIAN_POINT('Ctrl Pts',(41.8946247425951,11.9999999999999,-6.92820323027554));
#359=CARTESIAN_POINT('',(35.2744752699788,-5.55111512312578E-015,-13.856406460551));
#360=CARTESIAN_POINT($,(38.5845500062869,1.11022302462516E-014,-13.856406460551));
#361=CARTESIAN_POINT('',(35.2744752699788,12.,-6.9282032302755));
#362=CARTESIAN_POINT('Ctrl Pts',(35.2744752699788,12.,-6.9282032302755));
#363=CARTESIAN_POINT('Ctrl Pts',(34.3462720397033,5.99999999999999,-10.3923048454133));
#364=CARTESIAN_POINT('Ctrl Pts',(35.2744752699788,-3.0281354053807E-014,
-13.856406460551));
#365=CARTESIAN_POINT($,(41.8946247425951,12.,-6.9282032302755));
#366=CARTESIAN_POINT('Origin',(34.,-12.,-6.9282032302755));
#367=CARTESIAN_POINT('',(41.8946247425951,-12.,-6.9282032302755));
#368=CARTESIAN_POINT('Ctrl Pts',(41.8946247425951,-12.,-6.92820323027549));
#369=CARTESIAN_POINT('Ctrl Pts',(42.8228279728706,-5.99999999999997,-10.3923048454133));
#370=CARTESIAN_POINT('Ctrl Pts',(41.8946247425951,1.18731905843321E-014,
-13.856406460551));
#371=CARTESIAN_POINT('',(35.2744752699788,-12.,-6.9282032302755));
#372=CARTESIAN_POINT($,(38.5845500062869,-12.,-6.92820323027551));
#373=CARTESIAN_POINT('Ctrl Pts',(35.2744752699788,1.32768831048607E-014,
-13.856406460551));
#374=CARTESIAN_POINT('Ctrl Pts',(34.3462720397033,-6.,-10.3923048454133));
#375=CARTESIAN_POINT('Ctrl Pts',(35.2744752699788,-12.,-6.92820323027548));
#376=CARTESIAN_POINT('Origin',(34.,-12.,6.9282032302755));
#377=CARTESIAN_POINT('',(41.8946247425951,-12.,6.92820323027547));
#378=CARTESIAN_POINT('Ctrl Pts',(41.8946247425951,-12.,6.92820323027551));
#379=CARTESIAN_POINT('Ctrl Pts',(42.8228279728706,-12.,4.44089209850063E-015));
#380=CARTESIAN_POINT('Ctrl Pts',(41.8946247425951,-12.,-6.92820323027551));
#381=CARTESIAN_POINT('',(35.2744752699788,-12.,6.92820323027547));
#382=CARTESIAN_POINT($,(38.5845500062869,-12.,6.92820323027548));
#383=CARTESIAN_POINT('Ctrl Pts',(35.2744752699788,-12.,-6.92820323027551));
#384=CARTESIAN_POINT('Ctrl Pts',(34.3462720397033,-12.,3.88578058618805E-015));
#385=CARTESIAN_POINT('Ctrl Pts',(35.2744752699788,-12.,6.92820323027552));
#386=CARTESIAN_POINT('Origin',(34.,0.,13.856406460551));
#387=CARTESIAN_POINT('',(41.8946247425951,-1.55431223447522E-014,13.856406460551));
#388=CARTESIAN_POINT('Ctrl Pts',(41.8946247425951,2.198826291175E-014,13.856406460551));
#389=CARTESIAN_POINT('Ctrl Pts',(42.8228279728706,-5.99999999999998,10.3923048454133));
#390=CARTESIAN_POINT('Ctrl Pts',(41.8946247425951,-12.,6.9282032302755));
#391=CARTESIAN_POINT('',(35.2744752699788,-1.55431223447522E-014,13.856406460551));
#392=CARTESIAN_POINT($,(38.5845500062869,-2.22044604925031E-015,13.856406460551));
#393=CARTESIAN_POINT('Ctrl Pts',(35.2744752699788,-12.,6.9282032302755));
#394=CARTESIAN_POINT('Ctrl Pts',(34.3462720397033,-6.00000000000001,10.3923048454132));
#395=CARTESIAN_POINT('Ctrl Pts',(35.2744752699788,2.667941761522E-014,13.856406460551));
#396=CARTESIAN_POINT('Origin',(34.,12.,6.9282032302755));
#397=CARTESIAN_POINT('',(41.8946247425951,12.,6.9282032302755));
#398=CARTESIAN_POINT('Ctrl Pts',(41.8946247425951,11.9999999999999,6.92820323027552));
#399=CARTESIAN_POINT('Ctrl Pts',(42.8228279728706,6.00000000000002,10.3923048454132));
#400=CARTESIAN_POINT('Ctrl Pts',(41.8946247425951,5.73910160577127E-014,
13.856406460551));
#401=CARTESIAN_POINT('',(35.2744752699788,12.,6.9282032302755));
#402=CARTESIAN_POINT($,(41.8946247425951,12.,6.9282032302755));
#403=CARTESIAN_POINT('Ctrl Pts',(35.2744752699788,-2.42502135241453E-014,
13.856406460551));
#404=CARTESIAN_POINT('Ctrl Pts',(34.3462720397033,6.,10.3923048454132));
#405=CARTESIAN_POINT('Ctrl Pts',(35.2744752699788,12.,6.92820323027548));
#406=CARTESIAN_POINT('Origin',(34.6372376349894,4.21502665277272E-015,2.46519032881566E-031));
#407=CARTESIAN_POINT('',(34.,7.88083117443842,-4.55000000000001));
#408=CARTESIAN_POINT('Origin',(34.,2.06874040742649E-015,-3.58316349333343E-015));
#409=CARTESIAN_POINT('Ctrl Pts',(35.2744752699788,12.,6.92820323027554));
#410=CARTESIAN_POINT('Ctrl Pts',(34.3462720397033,12.,-1.66533453693773E-015));
#411=CARTESIAN_POINT('Ctrl Pts',(35.2744752699788,12.,-6.92820323027555));
#412=CARTESIAN_POINT('Origin',(34.,12.,-6.9282032302755));
#413=CARTESIAN_POINT('Ctrl Pts',(41.8946247425951,12.,-6.92820323027545));
#414=CARTESIAN_POINT('Ctrl Pts',(42.8228279728706,12.,-5.55111512312578E-016));
#415=CARTESIAN_POINT('Ctrl Pts',(41.8946247425951,12.,6.92820323027545));
#416=CARTESIAN_POINT('Origin',(20.,2.43381224403117E-015,0.));
#417=CARTESIAN_POINT('',(40.,6.49519052838331,-3.75000000000001));
#418=CARTESIAN_POINT('Origin',(40.,2.43381224403117E-015,-4.21548646274521E-015));
#419=CARTESIAN_POINT('',(-5.2422662571592E-016,6.49519052838329,-3.75));
#420=CARTESIAN_POINT('Origin',(9.12679591511688E-016,5.55322691174628E-032,
-9.61847115710338E-032));
#421=CARTESIAN_POINT('Origin',(40.5,4.92846979416312E-015,0.));
#422=CARTESIAN_POINT('',(41.,5.62916512459886,-3.25));
#423=CARTESIAN_POINT('Origin',(41.,2.49465755013195E-015,-4.32087362431384E-015));
#424=CARTESIAN_POINT('Origin',(49.,5.96283999787637E-015,0.));
#425=CARTESIAN_POINT('',(57.,5.62916512459887,-3.25000000000001));
#426=CARTESIAN_POINT('Origin',(57.,3.46818244774441E-015,-6.00706820941193E-015));
#427=CARTESIAN_POINT('Origin',(57.,6.70195409353683,3.869375));
#428=CARTESIAN_POINT('',(57.,7.7747430624748,-4.48875));
#429=CARTESIAN_POINT('Origin',(57.,3.46818244774441E-015,-6.00706820941193E-015));
#430=CARTESIAN_POINT('Origin',(56.25,6.84509693633766E-015,4.93038065763132E-031));
#431=CARTESIAN_POINT('',(55.5,9.07378116815147,-5.23875));
#432=CARTESIAN_POINT('Origin',(55.5,3.37691448859324E-015,-5.84898746705898E-015));
#433=CARTESIAN_POINT('Origin',(49.15,5.9810935897066E-015,0.));
#434=CARTESIAN_POINT('',(42.8,9.07378116815146,-5.23875));
#435=CARTESIAN_POINT('Origin',(42.8,2.60417910111335E-015,-4.51057051513738E-015));
#436=CARTESIAN_POINT('Origin',(42.3473123712975,5.15327036755383E-015,0.));
#437=CARTESIAN_POINT('Origin',(34.,7.8375299042492,4.52500000000002));
#438=CARTESIAN_POINT('',(34.,7.79422863405998,-4.50000000000002));
#439=CARTESIAN_POINT('Origin',(34.,2.06874040742649E-015,-3.58316349333343E-015));
#440=CARTESIAN_POINT('Origin',(17.2,2.09307852986681E-015,2.46519032881566E-031));
#441=CARTESIAN_POINT('',(0.399999999999995,7.79422863405996,-4.50000000000001));
#442=CARTESIAN_POINT('Origin',(0.399999999999995,2.43381224403114E-017,
-4.21548646274516E-017));
#443=CARTESIAN_POINT('Origin',(0.199999999999998,2.43381224403114E-017,
0.));
#444=CARTESIAN_POINT('',(-6.40152503441415E-016,7.44781847254619,-4.30000000000001));
#445=CARTESIAN_POINT('Origin',(1.04653926493341E-015,1.27354003842715E-031,
0.));
#446=CARTESIAN_POINT('Origin',(1.31242777595073E-016,6.97150450046474,4.025));
#447=UNCERTAINTY_MEASURE_WITH_UNIT(LENGTH_MEASURE(0.01),#449,
'DISTANCE_ACCURACY_VALUE',
'Maximum model space distance between geometric entities at asserted c
onnectivities');
#448=(
GEOMETRIC_REPRESENTATION_CONTEXT(3)
GLOBAL_UNCERTAINTY_ASSIGNED_CONTEXT((#447))
GLOBAL_UNIT_ASSIGNED_CONTEXT((#449,#452,#450))
REPRESENTATION_CONTEXT('','3D')
);
#449=(
LENGTH_UNIT()
NAMED_UNIT(*)
SI_UNIT(.MILLI.,.METRE.)
);
#450=(
NAMED_UNIT(*)
SI_UNIT($,.STERADIAN.)
SOLID_ANGLE_UNIT()
);
#451=DIMENSIONAL_EXPONENTS(0.,0.,0.,0.,0.,0.,0.);
#452=(
CONVERSION_BASED_UNIT('degree',#454)
NAMED_UNIT(#451)
PLANE_ANGLE_UNIT()
);
#453=(
NAMED_UNIT(*)
PLANE_ANGLE_UNIT()
SI_UNIT($,.RADIAN.)
);
#454=PLANE_ANGLE_MEASURE_WITH_UNIT(PLANE_ANGLE_MEASURE(0.01745329252),#453);
#455=SHAPE_DEFINITION_REPRESENTATION(#456,#457);
#456=PRODUCT_DEFINITION_SHAPE('',$,#459);
#457=SHAPE_REPRESENTATION('',(#256),#448);
#458=PRODUCT_DEFINITION_CONTEXT('3D Mechanical Parts',#462,'design');
#459=PRODUCT_DEFINITION('31933','31933',#460,#458);
#460=PRODUCT_DEFINITION_FORMATION('',$,#464);
#461=APPLICATION_PROTOCOL_DEFINITION('international standard',
'automotive_design',2009,#462);
#462=APPLICATION_CONTEXT(
'Core Data for Automotive Mechanical Design Process');
#463=PRODUCT_CONTEXT('3D Mechanical Parts',#462,'mechanical');
#464=PRODUCT('31933','31933',$,(#463));
#465=PRESENTATION_STYLE_ASSIGNMENT((#466));
#466=SURFACE_STYLE_USAGE(.BOTH.,#467);
#467=SURFACE_SIDE_STYLE($,(#468));
#468=SURFACE_STYLE_FILL_AREA(#469);
#469=FILL_AREA_STYLE($,(#470));
#470=FILL_AREA_STYLE_COLOUR($,#471);
#471=COLOUR_RGB('',1.,1.,1.);
ENDSEC;
END-ISO-10303-21;
