ISO-10303-21;
HEADER;
/****************************************************************
 * Generated by software with PDE/Lib inside                    *
 * PDElib Version v51a, created Thu 12/14/2006                  *
 * International Technegroup Inc. (www.iti-oh.com)              *
 ****************************************************************/
FILE_DESCRIPTION((''),'2;1');
FILE_NAME('T:\\Arbeitspl\S\dtze\\Aushilfe\\KPeters\\3D\\Steps 08_10\\16263\\16263212X.stp','2010-08-10T09:56:51',('thilbrands'),(''),'Autodesk Inventor 2008','Autodesk Inventor 2008','');
FILE_SCHEMA(('AUTOMOTIVE_DESIGN { 1 0 10303 214 1 1 1 1 }'));
ENDSEC;
DATA;
#5=APPLICATION_CONTEXT('automotive design');
#6=APPLICATION_PROTOCOL_DEFINITION('International Standard','automotive_design',2001,#5);
#7=PRODUCT_CONTEXT('',#5,'mechanical');
#8=PRODUCT('162631003','162631003',$,(#7));
#9=PRODUCT_RELATED_PRODUCT_CATEGORY('part',$,(#8));
#10=PRODUCT_DEFINITION_FORMATION('',$,#8);
#11=PRODUCT_DEFINITION_CONTEXT('part definition',#5,'design');
#12=PRODUCT_DEFINITION('',$,#10,#11);
#18=(NAMED_UNIT(*)PLANE_ANGLE_UNIT()SI_UNIT($,.RADIAN.));
#19=DIMENSIONAL_EXPONENTS(0.0,0.0,0.0,0.0,0.0,0.0,0.0);
#20=PLANE_ANGLE_MEASURE_WITH_UNIT(PLANE_ANGLE_MEASURE(0.017453292500000),#18);
#24=(CONVERSION_BASED_UNIT('DEGREE',#20)NAMED_UNIT(#19)PLANE_ANGLE_UNIT());
#28=(NAMED_UNIT(*)SI_UNIT($,.STERADIAN.)SOLID_ANGLE_UNIT());
#32=(LENGTH_UNIT()NAMED_UNIT(*)SI_UNIT(.MILLI.,.METRE.));
#34=UNCERTAINTY_MEASURE_WITH_UNIT(LENGTH_MEASURE(0.010000000000000),#32,'DISTANCE_ACCURACY_VALUE','');
#36=(GEOMETRIC_REPRESENTATION_CONTEXT(3)GLOBAL_UNCERTAINTY_ASSIGNED_CONTEXT((#34))GLOBAL_UNIT_ASSIGNED_CONTEXT((#24,#28,#32))REPRESENTATION_CONTEXT('None','None'));
#37=AXIS2_PLACEMENT_3D('',#38,#39,#40);
#38=CARTESIAN_POINT('',(0.0,0.0,0.0));
#39=DIRECTION('',(0.0,0.0,1.0));
#40=DIRECTION('',(1.0,0.0,0.0));
#41=SHAPE_REPRESENTATION('',(#37),#36);
#42=PRODUCT_DEFINITION_SHAPE('','',#12);
#43=SHAPE_DEFINITION_REPRESENTATION(#42,#41);
#49=(NAMED_UNIT(*)PLANE_ANGLE_UNIT()SI_UNIT($,.RADIAN.));
#50=DIMENSIONAL_EXPONENTS(0.0,0.0,0.0,0.0,0.0,0.0,0.0);
#51=PLANE_ANGLE_MEASURE_WITH_UNIT(PLANE_ANGLE_MEASURE(0.017453292500000),#49);
#55=(CONVERSION_BASED_UNIT('DEGREE',#51)NAMED_UNIT(#50)PLANE_ANGLE_UNIT());
#59=(NAMED_UNIT(*)SI_UNIT($,.STERADIAN.)SOLID_ANGLE_UNIT());
#63=(LENGTH_UNIT()NAMED_UNIT(*)SI_UNIT(.MILLI.,.METRE.));
#65=UNCERTAINTY_MEASURE_WITH_UNIT(LENGTH_MEASURE(0.000001000000000),#63,'DISTANCE_ACCURACY_VALUE','');
#67=(GEOMETRIC_REPRESENTATION_CONTEXT(3)GLOBAL_UNCERTAINTY_ASSIGNED_CONTEXT((#65))GLOBAL_UNIT_ASSIGNED_CONTEXT((#55,#59,#63))REPRESENTATION_CONTEXT('','3D'));
#68=CARTESIAN_POINT('',(-7.400961894323356,0.0,0.0));
#69=DIRECTION('',(-1.0,0.0,0.0));
#70=DIRECTION('',(0.0,-1.0,0.0));
#71=AXIS2_PLACEMENT_3D('',#68,#69,#70);
#72=CONICAL_SURFACE('',#71,41.850000000000009,74.999999999999972);
#73=CARTESIAN_POINT('',(-7.601923788646698,42.600000000000009,5.216823E-015));
#74=VERTEX_POINT('',#73);
#75=CARTESIAN_POINT('',(-7.601923788646698,0.0,0.0));
#76=DIRECTION('',(1.0,0.0,0.0));
#77=DIRECTION('',(0.0,-1.0,0.0));
#78=AXIS2_PLACEMENT_3D('',#75,#76,#77);
#79=CIRCLE('',#78,42.600000000000009);
#80=EDGE_CURVE('',#74,#74,#79,.T.);
#81=ORIENTED_EDGE('',*,*,#80,.T.);
#82=EDGE_LOOP('',(#81));
#83=FACE_OUTER_BOUND('',#82,.T.);
#84=CARTESIAN_POINT('',(-7.200000000000014,41.100000000000001,-5.033132E-015));
#85=VERTEX_POINT('',#84);
#86=CARTESIAN_POINT('',(-7.200000000000014,0.0,0.0));
#87=DIRECTION('',(-1.0,0.0,0.0));
#88=DIRECTION('',(0.0,-1.0,0.0));
#89=AXIS2_PLACEMENT_3D('',#86,#87,#88);
#90=CIRCLE('',#89,41.100000000000001);
#91=EDGE_CURVE('',#85,#85,#90,.T.);
#92=ORIENTED_EDGE('',*,*,#91,.T.);
#93=EDGE_LOOP('',(#92));
#94=FACE_BOUND('',#93,.T.);
#95=ADVANCED_FACE('',(#83,#94),#72,.T.);
#96=CARTESIAN_POINT('',(-14.350000000000019,0.0,0.0));
#97=DIRECTION('',(1.0,0.0,0.0));
#98=DIRECTION('',(0.0,1.0,0.0));
#99=AXIS2_PLACEMENT_3D('',#96,#97,#98);
#100=CYLINDRICAL_SURFACE('',#99,42.600000000000009);
#101=CARTESIAN_POINT('',(-21.098076211353337,42.600000000000009,-5.216823E-015));
#102=VERTEX_POINT('',#101);
#103=CARTESIAN_POINT('',(-21.098076211353337,0.0,0.0));
#104=DIRECTION('',(-1.0,0.0,0.0));
#105=DIRECTION('',(0.0,-1.0,0.0));
#106=AXIS2_PLACEMENT_3D('',#103,#104,#105);
#107=CIRCLE('',#106,42.600000000000009);
#108=EDGE_CURVE('',#102,#102,#107,.T.);
#109=ORIENTED_EDGE('',*,*,#108,.F.);
#110=EDGE_LOOP('',(#109));
#111=FACE_OUTER_BOUND('',#110,.T.);
#112=ORIENTED_EDGE('',*,*,#80,.F.);
#113=EDGE_LOOP('',(#112));
#114=FACE_BOUND('',#113,.T.);
#115=ADVANCED_FACE('',(#111,#114),#100,.T.);
#116=CARTESIAN_POINT('',(-7.200000000000014,39.637500000000003,0.0));
#117=DIRECTION('',(1.0,0.0,0.0));
#118=DIRECTION('',(0.0,0.0,-1.0));
#119=AXIS2_PLACEMENT_3D('',#116,#117,#118);
#120=PLANE('',#119);
#121=ORIENTED_EDGE('',*,*,#91,.F.);
#122=EDGE_LOOP('',(#121));
#123=FACE_OUTER_BOUND('',#122,.T.);
#124=CARTESIAN_POINT('',(-7.200000000000014,36.674999999999997,0.0));
#125=VERTEX_POINT('',#124);
#126=CARTESIAN_POINT('',(-7.200000000000014,0.0,0.0));
#127=DIRECTION('',(1.0,0.0,0.0));
#128=DIRECTION('',(0.0,1.0,0.0));
#129=AXIS2_PLACEMENT_3D('',#126,#127,#128);
#130=CIRCLE('',#129,36.674999999999997);
#131=EDGE_CURVE('',#125,#125,#130,.T.);
#132=ORIENTED_EDGE('',*,*,#131,.F.);
#133=EDGE_LOOP('',(#132));
#134=FACE_BOUND('',#133,.T.);
#135=ADVANCED_FACE('',(#123,#134),#120,.T.);
#136=CARTESIAN_POINT('',(-21.299038105676679,0.0,0.0));
#137=DIRECTION('',(1.0,0.0,0.0));
#138=DIRECTION('',(0.0,-1.0,0.0));
#139=AXIS2_PLACEMENT_3D('',#136,#137,#138);
#140=CONICAL_SURFACE('',#139,41.850000000000009,75.000000000000057);
#141=CARTESIAN_POINT('',(-21.500000000000021,41.100000000000001,5.033132E-015));
#142=VERTEX_POINT('',#141);
#143=CARTESIAN_POINT('',(-21.500000000000021,0.0,0.0));
#144=DIRECTION('',(1.0,0.0,0.0));
#145=DIRECTION('',(0.0,-1.0,0.0));
#146=AXIS2_PLACEMENT_3D('',#143,#144,#145);
#147=CIRCLE('',#146,41.100000000000001);
#148=EDGE_CURVE('',#142,#142,#147,.T.);
#149=ORIENTED_EDGE('',*,*,#148,.T.);
#150=EDGE_LOOP('',(#149));
#151=FACE_OUTER_BOUND('',#150,.T.);
#152=ORIENTED_EDGE('',*,*,#108,.T.);
#153=EDGE_LOOP('',(#152));
#154=FACE_BOUND('',#153,.T.);
#155=ADVANCED_FACE('',(#151,#154),#140,.T.);
#156=CARTESIAN_POINT('',(-21.500000000000021,40.750000000000000,0.0));
#157=DIRECTION('',(-1.0,0.0,0.0));
#158=DIRECTION('',(0.0,0.0,1.0));
#159=AXIS2_PLACEMENT_3D('',#156,#157,#158);
#160=PLANE('',#159);
#161=ORIENTED_EDGE('',*,*,#148,.F.);
#162=EDGE_LOOP('',(#161));
#163=FACE_OUTER_BOUND('',#162,.T.);
#164=CARTESIAN_POINT('',(-21.500000000000018,38.899999999999999,0.0));
#165=VERTEX_POINT('',#164);
#166=CARTESIAN_POINT('',(-21.500000000000018,0.0,0.0));
#167=DIRECTION('',(1.0,0.0,0.0));
#168=DIRECTION('',(0.0,1.0,0.0));
#169=AXIS2_PLACEMENT_3D('',#166,#167,#168);
#170=CIRCLE('',#169,38.899999999999999);
#171=EDGE_CURVE('',#165,#165,#170,.T.);
#172=ORIENTED_EDGE('',*,*,#171,.T.);
#173=EDGE_LOOP('',(#172));
#174=FACE_BOUND('',#173,.T.);
#175=ADVANCED_FACE('',(#163,#174),#160,.T.);
#176=CARTESIAN_POINT('',(-13.150000000000011,0.0,0.0));
#177=DIRECTION('',(1.0,0.0,0.0));
#178=DIRECTION('',(0.0,1.0,0.0));
#179=AXIS2_PLACEMENT_3D('',#176,#177,#178);
#180=CYLINDRICAL_SURFACE('',#179,30.149999999999999);
#181=CARTESIAN_POINT('',(-26.300000000000018,30.149999999999991,0.0));
#182=VERTEX_POINT('',#181);
#183=CARTESIAN_POINT('',(-26.300000000000018,0.0,0.0));
#184=DIRECTION('',(1.0,0.0,0.0));
#185=DIRECTION('',(0.0,1.0,0.0));
#186=AXIS2_PLACEMENT_3D('',#183,#184,#185);
#187=CIRCLE('',#186,30.149999999999991);
#188=EDGE_CURVE('',#182,#182,#187,.T.);
#189=ORIENTED_EDGE('',*,*,#188,.F.);
#190=EDGE_LOOP('',(#189));
#191=FACE_OUTER_BOUND('',#190,.T.);
#192=CARTESIAN_POINT('',(-3.330669E-015,30.150000000000006,0.0));
#193=VERTEX_POINT('',#192);
#194=CARTESIAN_POINT('',(-3.330669E-015,0.0,0.0));
#195=DIRECTION('',(1.0,0.0,0.0));
#196=DIRECTION('',(0.0,1.0,0.0));
#197=AXIS2_PLACEMENT_3D('',#194,#195,#196);
#198=CIRCLE('',#197,30.150000000000006);
#199=EDGE_CURVE('',#193,#193,#198,.T.);
#200=ORIENTED_EDGE('',*,*,#199,.T.);
#201=EDGE_LOOP('',(#200));
#202=FACE_BOUND('',#201,.T.);
#203=ADVANCED_FACE('',(#191,#202),#180,.F.);
#204=CARTESIAN_POINT('',(-26.300000000000018,30.268663143425503,0.0));
#205=DIRECTION('',(-1.0,0.0,0.0));
#206=DIRECTION('',(0.0,0.0,1.0));
#207=AXIS2_PLACEMENT_3D('',#204,#205,#206);
#208=PLANE('',#207);
#209=CARTESIAN_POINT('',(-26.300000000000022,30.387326286851017,0.0));
#210=VERTEX_POINT('',#209);
#211=CARTESIAN_POINT('',(-26.300000000000022,0.0,0.0));
#212=DIRECTION('',(1.0,0.0,0.0));
#213=DIRECTION('',(0.0,1.0,0.0));
#214=AXIS2_PLACEMENT_3D('',#211,#212,#213);
#215=CIRCLE('',#214,30.387326286851017);
#216=EDGE_CURVE('',#210,#210,#215,.T.);
#217=ORIENTED_EDGE('',*,*,#216,.F.);
#218=EDGE_LOOP('',(#217));
#219=FACE_OUTER_BOUND('',#218,.T.);
#220=ORIENTED_EDGE('',*,*,#188,.T.);
#221=EDGE_LOOP('',(#220));
#222=FACE_BOUND('',#221,.T.);
#223=ADVANCED_FACE('',(#219,#222),#208,.T.);
#224=CARTESIAN_POINT('',(-24.700000000000017,0.0,0.0));
#225=DIRECTION('',(1.0,0.0,0.0));
#226=DIRECTION('',(0.0,0.0,-1.0));
#227=AXIS2_PLACEMENT_3D('',#224,#225,#226);
#228=TOROIDAL_SURFACE('',#227,30.387326286851017,1.600000000000006);
#229=CARTESIAN_POINT('',(-24.954703014778481,31.966923189311505,0.0));
#230=VERTEX_POINT('',#229);
#231=CARTESIAN_POINT('',(-24.954703014778481,0.0,0.0));
#232=DIRECTION('',(1.0,0.0,0.0));
#233=DIRECTION('',(0.0,1.0,0.0));
#234=AXIS2_PLACEMENT_3D('',#231,#232,#233);
#235=CIRCLE('',#234,31.966923189311505);
#236=EDGE_CURVE('',#230,#230,#235,.T.);
#237=ORIENTED_EDGE('',*,*,#236,.F.);
#238=EDGE_LOOP('',(#237));
#239=FACE_OUTER_BOUND('',#238,.T.);
#240=ORIENTED_EDGE('',*,*,#216,.T.);
#241=EDGE_LOOP('',(#240));
#242=FACE_BOUND('',#241,.T.);
#243=ADVANCED_FACE('',(#239,#242),#228,.T.);
#244=CARTESIAN_POINT('',(-23.227351507389251,0.0,0.0));
#245=DIRECTION('',(1.0,0.0,0.0));
#246=DIRECTION('',(0.0,1.0,0.0));
#247=AXIS2_PLACEMENT_3D('',#244,#245,#246);
#248=CONICAL_SURFACE('',#247,32.245450980692233,9.159848327365216);
#249=CARTESIAN_POINT('',(-21.500000000000018,32.523978772072965,0.0));
#250=VERTEX_POINT('',#249);
#251=CARTESIAN_POINT('',(-21.500000000000018,0.0,0.0));
#252=DIRECTION('',(1.0,0.0,0.0));
#253=DIRECTION('',(0.0,1.0,0.0));
#254=AXIS2_PLACEMENT_3D('',#251,#252,#253);
#255=CIRCLE('',#254,32.523978772072965);
#256=EDGE_CURVE('',#250,#250,#255,.T.);
#257=ORIENTED_EDGE('',*,*,#256,.F.);
#258=EDGE_LOOP('',(#257));
#259=FACE_OUTER_BOUND('',#258,.T.);
#260=ORIENTED_EDGE('',*,*,#236,.T.);
#261=EDGE_LOOP('',(#260));
#262=FACE_BOUND('',#261,.T.);
#263=ADVANCED_FACE('',(#259,#262),#248,.T.);
#264=CARTESIAN_POINT('',(-21.505505478988866,0.0,0.0));
#265=DIRECTION('',(1.0,0.0,0.0));
#266=DIRECTION('',(0.0,1.0,0.0));
#267=AXIS2_PLACEMENT_3D('',#264,#265,#266);
#268=CONICAL_SURFACE('',#267,32.511989386036483,65.335598548460979);
#269=CARTESIAN_POINT('',(-21.511010957977717,32.500000000000000,0.0));
#270=VERTEX_POINT('',#269);
#271=CARTESIAN_POINT('',(-21.511010957977717,0.0,0.0));
#272=DIRECTION('',(1.0,0.0,0.0));
#273=DIRECTION('',(0.0,1.0,0.0));
#274=AXIS2_PLACEMENT_3D('',#271,#272,#273);
#275=CIRCLE('',#274,32.500000000000000);
#276=EDGE_CURVE('',#270,#270,#275,.T.);
#277=ORIENTED_EDGE('',*,*,#276,.F.);
#278=EDGE_LOOP('',(#277));
#279=FACE_OUTER_BOUND('',#278,.T.);
#280=ORIENTED_EDGE('',*,*,#256,.T.);
#281=EDGE_LOOP('',(#280));
#282=FACE_BOUND('',#281,.T.);
#283=ADVANCED_FACE('',(#279,#282),#268,.F.);
#284=CARTESIAN_POINT('',(-20.705505478988865,0.0,0.0));
#285=DIRECTION('',(1.0,0.0,0.0));
#286=DIRECTION('',(0.0,1.0,0.0));
#287=AXIS2_PLACEMENT_3D('',#284,#285,#286);
#288=CYLINDRICAL_SURFACE('',#287,32.500000000000000);
#289=CARTESIAN_POINT('',(-19.900000000000013,32.500000000000000,0.0));
#290=VERTEX_POINT('',#289);
#291=CARTESIAN_POINT('',(-19.900000000000013,0.0,0.0));
#292=DIRECTION('',(1.0,0.0,0.0));
#293=DIRECTION('',(0.0,1.0,0.0));
#294=AXIS2_PLACEMENT_3D('',#291,#292,#293);
#295=CIRCLE('',#294,32.500000000000000);
#296=EDGE_CURVE('',#290,#290,#295,.T.);
#297=ORIENTED_EDGE('',*,*,#296,.F.);
#298=EDGE_LOOP('',(#297));
#299=FACE_OUTER_BOUND('',#298,.T.);
#300=ORIENTED_EDGE('',*,*,#276,.T.);
#301=EDGE_LOOP('',(#300));
#302=FACE_BOUND('',#301,.T.);
#303=ADVANCED_FACE('',(#299,#302),#288,.T.);
#304=CARTESIAN_POINT('',(-19.900000000000016,-4.763719E-015,38.900000000000006));
#305=CARTESIAN_POINT('',(-16.700000000000014,-4.763719E-015,38.900000000000006));
#306=CARTESIAN_POINT('',(-16.700000000000014,-4.371845E-015,35.700000000000003));
#307=CARTESIAN_POINT('',(-16.700000000000014,-3.979971E-015,32.500000000000000));
#308=CARTESIAN_POINT('',(-19.900000000000016,-3.979971E-015,32.500000000000000));
#309=CARTESIAN_POINT('',(-19.900000000000016,-38.900000000000006,38.899999999999991));
#310=CARTESIAN_POINT('',(-16.700000000000014,-38.900000000000006,38.899999999999991));
#311=CARTESIAN_POINT('',(-16.700000000000014,-35.700000000000003,35.699999999999989));
#312=CARTESIAN_POINT('',(-16.700000000000014,-32.500000000000000,32.499999999999986));
#313=CARTESIAN_POINT('',(-19.900000000000016,-32.500000000000000,32.499999999999986));
#314=CARTESIAN_POINT('',(-19.900000000000016,-38.900000000000006,-4.763719E-015));
#315=CARTESIAN_POINT('',(-16.700000000000014,-38.900000000000006,-4.763719E-015));
#316=CARTESIAN_POINT('',(-16.700000000000014,-35.700000000000003,-4.371845E-015));
#317=CARTESIAN_POINT('',(-16.700000000000014,-32.500000000000000,-3.979971E-015));
#318=CARTESIAN_POINT('',(-19.900000000000016,-32.500000000000000,-3.979971E-015));
#319=CARTESIAN_POINT('',(-19.900000000000016,-38.899999999999991,-38.900000000000006));
#320=CARTESIAN_POINT('',(-16.700000000000014,-38.899999999999991,-38.900000000000006));
#321=CARTESIAN_POINT('',(-16.700000000000014,-35.699999999999989,-35.700000000000003));
#322=CARTESIAN_POINT('',(-16.700000000000014,-32.499999999999986,-32.500000000000000));
#323=CARTESIAN_POINT('',(-19.900000000000016,-32.499999999999986,-32.500000000000000));
#324=CARTESIAN_POINT('',(-19.900000000000016,4.763719E-015,-38.900000000000006));
#325=CARTESIAN_POINT('',(-16.700000000000014,4.763719E-015,-38.900000000000006));
#326=CARTESIAN_POINT('',(-16.700000000000014,4.371845E-015,-35.700000000000003));
#327=CARTESIAN_POINT('',(-16.700000000000014,3.979971E-015,-32.500000000000000));
#328=CARTESIAN_POINT('',(-19.900000000000016,3.979971E-015,-32.500000000000000));
#329=CARTESIAN_POINT('',(-19.900000000000016,38.900000000000006,-38.899999999999991));
#330=CARTESIAN_POINT('',(-16.700000000000014,38.900000000000006,-38.899999999999991));
#331=CARTESIAN_POINT('',(-16.700000000000014,35.700000000000003,-35.699999999999989));
#332=CARTESIAN_POINT('',(-16.700000000000014,32.500000000000000,-32.499999999999986));
#333=CARTESIAN_POINT('',(-19.900000000000016,32.500000000000000,-32.499999999999986));
#334=CARTESIAN_POINT('',(-19.900000000000016,38.900000000000006,4.763719E-015));
#335=CARTESIAN_POINT('',(-16.700000000000014,38.900000000000006,4.763719E-015));
#336=CARTESIAN_POINT('',(-16.700000000000014,35.700000000000003,4.371845E-015));
#337=CARTESIAN_POINT('',(-16.700000000000014,32.500000000000000,3.979971E-015));
#338=CARTESIAN_POINT('',(-19.900000000000016,32.500000000000000,3.979971E-015));
#339=CARTESIAN_POINT('',(-19.900000000000016,38.899999999999991,38.900000000000006));
#340=CARTESIAN_POINT('',(-16.700000000000014,38.899999999999991,38.900000000000006));
#341=CARTESIAN_POINT('',(-16.700000000000014,35.699999999999989,35.700000000000003));
#342=CARTESIAN_POINT('',(-16.700000000000014,32.499999999999986,32.500000000000000));
#343=CARTESIAN_POINT('',(-19.900000000000016,32.499999999999986,32.500000000000000));
#344=CARTESIAN_POINT('',(-19.900000000000016,-4.763719E-015,38.900000000000006));
#345=CARTESIAN_POINT('',(-16.700000000000014,-4.763719E-015,38.900000000000006));
#346=CARTESIAN_POINT('',(-16.700000000000014,-4.371845E-015,35.700000000000003));
#347=CARTESIAN_POINT('',(-16.700000000000014,-3.979971E-015,32.500000000000000));
#348=CARTESIAN_POINT('',(-19.900000000000016,-3.979971E-015,32.500000000000000));
#356=(BOUNDED_SURFACE()B_SPLINE_SURFACE(2,2,((#304,#309,#314,#319,#324,#329,#334,#339,#344),(#305,#310,#315,#320,#325,#330,#335,#340,#345),(#306,#311,#316,#321,#326,#331,#336,#341,#346),(#307,#312,#317,#322,#327,#332,#337,#342,#347),(#308,#313,#318,#323,#328,#333,#338,#343,#348)),.UNSPECIFIED.,.F.,.T.,.U.)B_SPLINE_SURFACE_WITH_KNOTS((3,2,3),(3,2,2,2,3),(0.0,1.570796326794897,3.141592653589793),(0.0,1.570796326794897,3.141592653589793,4.712388980384690,6.283185307179586),.UNSPECIFIED.)GEOMETRIC_REPRESENTATION_ITEM()RATIONAL_B_SPLINE_SURFACE(((1.0,0.707106781186548,1.0,0.707106781186548,1.0,0.707106781186548,1.0,0.707106781186548,1.0),(0.707106781186549,0.500000000000001,0.707106781186549,0.500000000000001,0.707106781186549,0.500000000000001,0.707106781186549,0.500000000000001,0.707106781186549),(1.0,0.707106781186548,1.0,0.707106781186548,1.0,0.707106781186548,1.0,0.707106781186548,1.0),(0.707106781186549,0.500000000000001,0.707106781186549,0.500000000000001,0.707106781186549,0.500000000000001,0.707106781186549,0.500000000000001,0.707106781186549),(1.0,0.707106781186548,1.0,0.707106781186548,1.0,0.707106781186548,1.0,0.707106781186548,1.0)))REPRESENTATION_ITEM('')SURFACE());
#357=CARTESIAN_POINT('',(-19.900000000000016,38.899999999999999,0.0));
#358=VERTEX_POINT('',#357);
#359=CARTESIAN_POINT('',(-19.900000000000016,0.0,0.0));
#360=DIRECTION('',(1.0,0.0,0.0));
#361=DIRECTION('',(0.0,1.0,0.0));
#362=AXIS2_PLACEMENT_3D('',#359,#360,#361);
#363=CIRCLE('',#362,38.899999999999999);
#364=EDGE_CURVE('',#358,#358,#363,.T.);
#365=ORIENTED_EDGE('',*,*,#364,.F.);
#366=EDGE_LOOP('',(#365));
#367=FACE_OUTER_BOUND('',#366,.T.);
#368=ORIENTED_EDGE('',*,*,#296,.T.);
#369=EDGE_LOOP('',(#368));
#370=FACE_BOUND('',#369,.T.);
#371=ADVANCED_FACE('',(#367,#370),#356,.T.);
#372=CARTESIAN_POINT('',(-20.700000000000017,0.0,0.0));
#373=DIRECTION('',(1.0,0.0,0.0));
#374=DIRECTION('',(0.0,1.0,0.0));
#375=AXIS2_PLACEMENT_3D('',#372,#373,#374);
#376=CYLINDRICAL_SURFACE('',#375,38.899999999999999);
#377=ORIENTED_EDGE('',*,*,#171,.F.);
#378=EDGE_LOOP('',(#377));
#379=FACE_OUTER_BOUND('',#378,.T.);
#380=ORIENTED_EDGE('',*,*,#364,.T.);
#381=EDGE_LOOP('',(#380));
#382=FACE_BOUND('',#381,.T.);
#383=ADVANCED_FACE('',(#379,#382),#376,.F.);
#384=CARTESIAN_POINT('',(-2.400000000000012,-3.903433E-015,31.875000000000000));
#385=CARTESIAN_POINT('',(-7.200000000000012,-3.903433E-015,31.875000000000000));
#386=CARTESIAN_POINT('',(-7.200000000000011,-4.491244E-015,36.674999999999997));
#387=CARTESIAN_POINT('',(-7.200000000000011,-5.079055E-015,41.474999999999994));
#388=CARTESIAN_POINT('',(-2.400000000000012,-5.079055E-015,41.474999999999994));
#389=CARTESIAN_POINT('',(-2.400000000000012,-31.874999999999993,31.874999999999989));
#390=CARTESIAN_POINT('',(-7.200000000000012,-31.874999999999996,31.874999999999989));
#391=CARTESIAN_POINT('',(-7.200000000000011,-36.674999999999997,36.674999999999983));
#392=CARTESIAN_POINT('',(-7.200000000000011,-41.474999999999994,41.474999999999980));
#393=CARTESIAN_POINT('',(-2.400000000000012,-41.474999999999994,41.474999999999980));
#394=CARTESIAN_POINT('',(-2.400000000000012,-31.875000000000000,-3.903433E-015));
#395=CARTESIAN_POINT('',(-7.200000000000012,-31.875000000000000,-3.903433E-015));
#396=CARTESIAN_POINT('',(-7.200000000000011,-36.674999999999997,-4.491244E-015));
#397=CARTESIAN_POINT('',(-7.200000000000011,-41.474999999999994,-5.079055E-015));
#398=CARTESIAN_POINT('',(-2.400000000000012,-41.474999999999994,-5.079055E-015));
#399=CARTESIAN_POINT('',(-2.400000000000012,-31.874999999999989,-31.874999999999993));
#400=CARTESIAN_POINT('',(-7.200000000000012,-31.874999999999989,-31.874999999999996));
#401=CARTESIAN_POINT('',(-7.200000000000011,-36.674999999999983,-36.674999999999997));
#402=CARTESIAN_POINT('',(-7.200000000000011,-41.474999999999980,-41.474999999999994));
#403=CARTESIAN_POINT('',(-2.400000000000012,-41.474999999999980,-41.474999999999994));
#404=CARTESIAN_POINT('',(-2.400000000000012,3.903433E-015,-31.875000000000000));
#405=CARTESIAN_POINT('',(-7.200000000000012,3.903433E-015,-31.875000000000000));
#406=CARTESIAN_POINT('',(-7.200000000000011,4.491244E-015,-36.674999999999997));
#407=CARTESIAN_POINT('',(-7.200000000000011,5.079055E-015,-41.474999999999994));
#408=CARTESIAN_POINT('',(-2.400000000000012,5.079055E-015,-41.474999999999994));
#409=CARTESIAN_POINT('',(-2.400000000000012,31.874999999999993,-31.874999999999989));
#410=CARTESIAN_POINT('',(-7.200000000000012,31.874999999999996,-31.874999999999989));
#411=CARTESIAN_POINT('',(-7.200000000000011,36.674999999999997,-36.674999999999983));
#412=CARTESIAN_POINT('',(-7.200000000000011,41.474999999999994,-41.474999999999980));
#413=CARTESIAN_POINT('',(-2.400000000000012,41.474999999999994,-41.474999999999980));
#414=CARTESIAN_POINT('',(-2.400000000000012,31.875000000000000,3.903433E-015));
#415=CARTESIAN_POINT('',(-7.200000000000012,31.875000000000000,3.903433E-015));
#416=CARTESIAN_POINT('',(-7.200000000000011,36.674999999999997,4.491244E-015));
#417=CARTESIAN_POINT('',(-7.200000000000011,41.474999999999994,5.079055E-015));
#418=CARTESIAN_POINT('',(-2.400000000000012,41.474999999999994,5.079055E-015));
#419=CARTESIAN_POINT('',(-2.400000000000012,31.874999999999989,31.874999999999993));
#420=CARTESIAN_POINT('',(-7.200000000000012,31.874999999999989,31.874999999999996));
#421=CARTESIAN_POINT('',(-7.200000000000011,36.674999999999983,36.674999999999997));
#422=CARTESIAN_POINT('',(-7.200000000000011,41.474999999999980,41.474999999999994));
#423=CARTESIAN_POINT('',(-2.400000000000012,41.474999999999980,41.474999999999994));
#424=CARTESIAN_POINT('',(-2.400000000000012,-3.903433E-015,31.875000000000000));
#425=CARTESIAN_POINT('',(-7.200000000000012,-3.903433E-015,31.875000000000000));
#426=CARTESIAN_POINT('',(-7.200000000000011,-4.491244E-015,36.674999999999997));
#427=CARTESIAN_POINT('',(-7.200000000000011,-5.079055E-015,41.474999999999994));
#428=CARTESIAN_POINT('',(-2.400000000000012,-5.079055E-015,41.474999999999994));
#436=(BOUNDED_SURFACE()B_SPLINE_SURFACE(2,2,((#384,#389,#394,#399,#404,#409,#414,#419,#424),(#385,#390,#395,#400,#405,#410,#415,#420,#425),(#386,#391,#396,#401,#406,#411,#416,#421,#426),(#387,#392,#397,#402,#407,#412,#417,#422,#427),(#388,#393,#398,#403,#408,#413,#418,#423,#428)),.UNSPECIFIED.,.F.,.T.,.U.)B_SPLINE_SURFACE_WITH_KNOTS((3,2,3),(3,2,2,2,3),(-3.141592653589794,-1.570796326794897,3.700743E-016),(0.0,1.570796326794897,3.141592653589793,4.712388980384690,6.283185307179586),.UNSPECIFIED.)GEOMETRIC_REPRESENTATION_ITEM()RATIONAL_B_SPLINE_SURFACE(((1.0,0.707106781186548,1.0,0.707106781186548,1.0,0.707106781186548,1.0,0.707106781186548,1.0),(0.707106781186549,0.500000000000001,0.707106781186549,0.500000000000001,0.707106781186549,0.500000000000001,0.707106781186549,0.500000000000001,0.707106781186549),(1.0,0.707106781186548,1.0,0.707106781186548,1.0,0.707106781186548,1.0,0.707106781186548,1.0),(0.707106781186549,0.500000000000001,0.707106781186549,0.500000000000001,0.707106781186549,0.500000000000001,0.707106781186549,0.500000000000001,0.707106781186549),(1.0,0.707106781186548,1.0,0.707106781186548,1.0,0.707106781186548,1.0,0.707106781186548,1.0)))REPRESENTATION_ITEM('')SURFACE());
#437=CARTESIAN_POINT('',(-2.400000000000012,31.874999999999996,0.0));
#438=VERTEX_POINT('',#437);
#439=CARTESIAN_POINT('',(-2.400000000000012,0.0,0.0));
#440=DIRECTION('',(1.0,0.0,0.0));
#441=DIRECTION('',(0.0,1.0,0.0));
#442=AXIS2_PLACEMENT_3D('',#439,#440,#441);
#443=CIRCLE('',#442,31.874999999999996);
#444=EDGE_CURVE('',#438,#438,#443,.T.);
#445=ORIENTED_EDGE('',*,*,#444,.F.);
#446=EDGE_LOOP('',(#445));
#447=FACE_OUTER_BOUND('',#446,.T.);
#448=ORIENTED_EDGE('',*,*,#131,.T.);
#449=EDGE_LOOP('',(#448));
#450=FACE_BOUND('',#449,.T.);
#451=ADVANCED_FACE('',(#447,#450),#436,.T.);
#452=CARTESIAN_POINT('',(-1.200000000000008,0.0,0.0));
#453=DIRECTION('',(1.0,0.0,0.0));
#454=DIRECTION('',(0.0,1.0,0.0));
#455=AXIS2_PLACEMENT_3D('',#452,#453,#454);
#456=CYLINDRICAL_SURFACE('',#455,31.875000000000000);
#457=CARTESIAN_POINT('',(-3.885781E-015,31.875000000000000,0.0));
#458=VERTEX_POINT('',#457);
#459=CARTESIAN_POINT('',(-3.885781E-015,0.0,0.0));
#460=DIRECTION('',(1.0,0.0,0.0));
#461=DIRECTION('',(0.0,1.0,0.0));
#462=AXIS2_PLACEMENT_3D('',#459,#460,#461);
#463=CIRCLE('',#462,31.875000000000000);
#464=EDGE_CURVE('',#458,#458,#463,.T.);
#465=ORIENTED_EDGE('',*,*,#464,.F.);
#466=EDGE_LOOP('',(#465));
#467=FACE_OUTER_BOUND('',#466,.T.);
#468=ORIENTED_EDGE('',*,*,#444,.T.);
#469=EDGE_LOOP('',(#468));
#470=FACE_BOUND('',#469,.T.);
#471=ADVANCED_FACE('',(#467,#470),#456,.T.);
#472=CARTESIAN_POINT('',(-3.608225E-015,31.012500000000003,0.0));
#473=DIRECTION('',(1.0,0.0,0.0));
#474=DIRECTION('',(0.0,0.0,-1.0));
#475=AXIS2_PLACEMENT_3D('',#472,#473,#474);
#476=PLANE('',#475);
#477=ORIENTED_EDGE('',*,*,#464,.T.);
#478=EDGE_LOOP('',(#477));
#479=FACE_OUTER_BOUND('',#478,.T.);
#480=ORIENTED_EDGE('',*,*,#199,.F.);
#481=EDGE_LOOP('',(#480));
#482=FACE_BOUND('',#481,.T.);
#483=ADVANCED_FACE('',(#479,#482),#476,.T.);
#484=CLOSED_SHELL('',(#95,#115,#135,#155,#175,#203,#223,#243,#263,#283,#303,#371,#383,#451,#471,#483));
#485=MANIFOLD_SOLID_BREP('',#484);
#486=COLOUR_RGB('Metall - Stahl',0.639216005802155,0.639216005802155,0.686275005340576);
#487=FILL_AREA_STYLE_COLOUR('Metall - Stahl',#486);
#488=FILL_AREA_STYLE('Metall - Stahl',(#487));
#489=SURFACE_STYLE_FILL_AREA(#488);
#490=SURFACE_SIDE_STYLE('Metall - Stahl',(#489));
#491=SURFACE_STYLE_USAGE(.BOTH.,#490);
#492=PRESENTATION_STYLE_ASSIGNMENT((#491));
#493=STYLED_ITEM('',(#492),#485);
#494=MECHANICAL_DESIGN_GEOMETRIC_PRESENTATION_REPRESENTATION('',(#493),#36);
#495=ADVANCED_BREP_SHAPE_REPRESENTATION('ABSR',(#485),#36);
#496=SHAPE_REPRESENTATION_RELATIONSHIP('SRR','None',#495,#41);
ENDSEC;
END-ISO-10303-21;
