ISO-10303-21;
HEADER;
/****************************************************************
 * Generated by software with PDE/Lib inside                    *
 * PDElib Version v51a, created Thu 12/14/2006                  *
 * International Technegroup Inc. (www.iti-oh.com)              *
 ****************************************************************/
FILE_DESCRIPTION((''),'2;1');
FILE_NAME('T:\\Arbeitspl\S\dtze\\Aushilfe\\KPeters\\3D\\Steps 08_10\\Kapitel5\\57800000\\57800000X000.stp','2010-10-21T16:30:54',('thilbrands'),(''),'Autodesk Inventor 2008','Autodesk Inventor 2008','');
FILE_SCHEMA(('AUTOMOTIVE_DESIGN { 1 0 10303 214 1 1 1 1 }'));
ENDSEC;
DATA;
#5=APPLICATION_CONTEXT('automotive design');
#6=APPLICATION_PROTOCOL_DEFINITION('International Standard','automotive_design',2001,#5);
#7=PRODUCT_CONTEXT('',#5,'mechanical');
#8=PRODUCT('57800000X000','57800000X000',$,(#7));
#9=PRODUCT_RELATED_PRODUCT_CATEGORY('part',$,(#8));
#10=PRODUCT_DEFINITION_FORMATION('',$,#8);
#11=PRODUCT_DEFINITION_CONTEXT('part definition',#5,'design');
#12=PRODUCT_DEFINITION('',$,#10,#11);
#18=(NAMED_UNIT(*)PLANE_ANGLE_UNIT()SI_UNIT($,.RADIAN.));
#19=DIMENSIONAL_EXPONENTS(0.0,0.0,0.0,0.0,0.0,0.0,0.0);
#20=PLANE_ANGLE_MEASURE_WITH_UNIT(PLANE_ANGLE_MEASURE(0.017453292500000),#18);
#24=(CONVERSION_BASED_UNIT('DEGREE',#20)NAMED_UNIT(#19)PLANE_ANGLE_UNIT());
#28=(NAMED_UNIT(*)SI_UNIT($,.STERADIAN.)SOLID_ANGLE_UNIT());
#32=(LENGTH_UNIT()NAMED_UNIT(*)SI_UNIT(.MILLI.,.METRE.));
#34=UNCERTAINTY_MEASURE_WITH_UNIT(LENGTH_MEASURE(0.010000000000000),#32,'DISTANCE_ACCURACY_VALUE','');
#36=(GEOMETRIC_REPRESENTATION_CONTEXT(3)GLOBAL_UNCERTAINTY_ASSIGNED_CONTEXT((#34))GLOBAL_UNIT_ASSIGNED_CONTEXT((#24,#28,#32))REPRESENTATION_CONTEXT('None','None'));
#37=AXIS2_PLACEMENT_3D('',#38,#39,#40);
#38=CARTESIAN_POINT('',(0.0,0.0,0.0));
#39=DIRECTION('',(0.0,0.0,1.0));
#40=DIRECTION('',(1.0,0.0,0.0));
#41=SHAPE_REPRESENTATION('',(#37),#36);
#42=PRODUCT_DEFINITION_SHAPE('','',#12);
#43=SHAPE_DEFINITION_REPRESENTATION(#42,#41);
#49=(NAMED_UNIT(*)PLANE_ANGLE_UNIT()SI_UNIT($,.RADIAN.));
#50=DIMENSIONAL_EXPONENTS(0.0,0.0,0.0,0.0,0.0,0.0,0.0);
#51=PLANE_ANGLE_MEASURE_WITH_UNIT(PLANE_ANGLE_MEASURE(0.017453292500000),#49);
#55=(CONVERSION_BASED_UNIT('DEGREE',#51)NAMED_UNIT(#50)PLANE_ANGLE_UNIT());
#59=(NAMED_UNIT(*)SI_UNIT($,.STERADIAN.)SOLID_ANGLE_UNIT());
#63=(LENGTH_UNIT()NAMED_UNIT(*)SI_UNIT(.MILLI.,.METRE.));
#65=UNCERTAINTY_MEASURE_WITH_UNIT(LENGTH_MEASURE(0.000001000000000),#63,'DISTANCE_ACCURACY_VALUE','');
#67=(GEOMETRIC_REPRESENTATION_CONTEXT(3)GLOBAL_UNCERTAINTY_ASSIGNED_CONTEXT((#65))GLOBAL_UNIT_ASSIGNED_CONTEXT((#55,#59,#63))REPRESENTATION_CONTEXT('','3D'));
#68=CARTESIAN_POINT('',(4.750000000000000,4.750000000000000,-24.000000000000004));
#69=DIRECTION('',(1.0,0.0,0.0));
#70=DIRECTION('',(0.0,0.0,-1.0));
#71=AXIS2_PLACEMENT_3D('',#68,#69,#70);
#72=PLANE('',#71);
#73=CARTESIAN_POINT('',(4.750000000000000,4.750000000000000,-11.999999999999996));
#74=VERTEX_POINT('',#73);
#75=CARTESIAN_POINT('',(4.750000000000000,-4.750000000000000,-11.999999999999996));
#76=VERTEX_POINT('',#75);
#77=CARTESIAN_POINT('',(4.750000000000000,4.750000000000000,-11.999999999999996));
#78=DIRECTION('',(0.0,-1.0,0.0));
#79=VECTOR('',#78,9.500000000000000);
#80=LINE('',#77,#79);
#81=EDGE_CURVE('',#74,#76,#80,.T.);
#82=ORIENTED_EDGE('',*,*,#81,.F.);
#83=CARTESIAN_POINT('',(4.750000000000000,4.750000000000000,-24.000000000000004));
#84=VERTEX_POINT('',#83);
#85=CARTESIAN_POINT('',(4.750000000000000,4.750000000000000,-24.000000000000004));
#86=DIRECTION('',(0.0,0.0,1.0));
#87=VECTOR('',#86,12.000000000000007);
#88=LINE('',#85,#87);
#89=EDGE_CURVE('',#84,#74,#88,.T.);
#90=ORIENTED_EDGE('',*,*,#89,.F.);
#91=CARTESIAN_POINT('',(4.750000000000000,-4.750000000000000,-24.000000000000004));
#92=VERTEX_POINT('',#91);
#93=CARTESIAN_POINT('',(4.750000000000000,-4.750000000000000,-24.000000000000004));
#94=DIRECTION('',(0.0,1.0,0.0));
#95=VECTOR('',#94,9.500000000000000);
#96=LINE('',#93,#95);
#97=EDGE_CURVE('',#92,#84,#96,.T.);
#98=ORIENTED_EDGE('',*,*,#97,.F.);
#99=CARTESIAN_POINT('',(4.750000000000000,-4.750000000000000,-24.000000000000004));
#100=DIRECTION('',(0.0,0.0,1.0));
#101=VECTOR('',#100,12.000000000000007);
#102=LINE('',#99,#101);
#103=EDGE_CURVE('',#92,#76,#102,.T.);
#104=ORIENTED_EDGE('',*,*,#103,.T.);
#105=EDGE_LOOP('',(#82,#90,#98,#104));
#106=FACE_OUTER_BOUND('',#105,.T.);
#107=ADVANCED_FACE('',(#106),#72,.F.);
#108=CARTESIAN_POINT('',(4.750000000000000,-4.750000000000000,-24.000000000000004));
#109=DIRECTION('',(0.0,-1.0,0.0));
#110=DIRECTION('',(0.0,0.0,-1.0));
#111=AXIS2_PLACEMENT_3D('',#108,#109,#110);
#112=PLANE('',#111);
#113=CARTESIAN_POINT('',(-4.750000000000000,-4.750000000000000,-11.999999999999996));
#114=VERTEX_POINT('',#113);
#115=CARTESIAN_POINT('',(4.750000000000000,-4.750000000000000,-11.999999999999996));
#116=DIRECTION('',(-1.0,0.0,0.0));
#117=VECTOR('',#116,9.500000000000000);
#118=LINE('',#115,#117);
#119=EDGE_CURVE('',#76,#114,#118,.T.);
#120=ORIENTED_EDGE('',*,*,#119,.F.);
#121=ORIENTED_EDGE('',*,*,#103,.F.);
#122=CARTESIAN_POINT('',(-4.750000000000000,-4.750000000000000,-24.000000000000004));
#123=VERTEX_POINT('',#122);
#124=CARTESIAN_POINT('',(-4.750000000000000,-4.750000000000000,-24.000000000000004));
#125=DIRECTION('',(1.0,0.0,0.0));
#126=VECTOR('',#125,9.500000000000000);
#127=LINE('',#124,#126);
#128=EDGE_CURVE('',#123,#92,#127,.T.);
#129=ORIENTED_EDGE('',*,*,#128,.F.);
#130=CARTESIAN_POINT('',(-4.750000000000000,-4.750000000000000,-24.000000000000004));
#131=DIRECTION('',(0.0,0.0,1.0));
#132=VECTOR('',#131,12.000000000000007);
#133=LINE('',#130,#132);
#134=EDGE_CURVE('',#123,#114,#133,.T.);
#135=ORIENTED_EDGE('',*,*,#134,.T.);
#136=EDGE_LOOP('',(#120,#121,#129,#135));
#137=FACE_OUTER_BOUND('',#136,.T.);
#138=ADVANCED_FACE('',(#137),#112,.F.);
#139=CARTESIAN_POINT('',(-4.750000000000000,-4.750000000000000,-24.000000000000004));
#140=DIRECTION('',(-1.0,0.0,0.0));
#141=DIRECTION('',(0.0,0.0,1.0));
#142=AXIS2_PLACEMENT_3D('',#139,#140,#141);
#143=PLANE('',#142);
#144=CARTESIAN_POINT('',(-4.750000000000000,4.750000000000000,-11.999999999999996));
#145=VERTEX_POINT('',#144);
#146=CARTESIAN_POINT('',(-4.750000000000000,-4.750000000000000,-11.999999999999996));
#147=DIRECTION('',(0.0,1.0,0.0));
#148=VECTOR('',#147,9.500000000000000);
#149=LINE('',#146,#148);
#150=EDGE_CURVE('',#114,#145,#149,.T.);
#151=ORIENTED_EDGE('',*,*,#150,.F.);
#152=ORIENTED_EDGE('',*,*,#134,.F.);
#153=CARTESIAN_POINT('',(-4.750000000000000,4.750000000000000,-24.000000000000004));
#154=VERTEX_POINT('',#153);
#155=CARTESIAN_POINT('',(-4.750000000000000,4.750000000000000,-24.000000000000004));
#156=DIRECTION('',(0.0,-1.0,0.0));
#157=VECTOR('',#156,9.500000000000000);
#158=LINE('',#155,#157);
#159=EDGE_CURVE('',#154,#123,#158,.T.);
#160=ORIENTED_EDGE('',*,*,#159,.F.);
#161=CARTESIAN_POINT('',(-4.750000000000000,4.750000000000000,-24.000000000000004));
#162=DIRECTION('',(0.0,0.0,1.0));
#163=VECTOR('',#162,12.000000000000007);
#164=LINE('',#161,#163);
#165=EDGE_CURVE('',#154,#145,#164,.T.);
#166=ORIENTED_EDGE('',*,*,#165,.T.);
#167=EDGE_LOOP('',(#151,#152,#160,#166));
#168=FACE_OUTER_BOUND('',#167,.T.);
#169=ADVANCED_FACE('',(#168),#143,.F.);
#170=CARTESIAN_POINT('',(-4.750000000000000,4.750000000000000,-24.000000000000004));
#171=DIRECTION('',(0.0,1.0,0.0));
#172=DIRECTION('',(0.0,0.0,1.0));
#173=AXIS2_PLACEMENT_3D('',#170,#171,#172);
#174=PLANE('',#173);
#175=CARTESIAN_POINT('',(-4.750000000000000,4.750000000000000,-11.999999999999996));
#176=DIRECTION('',(1.0,0.0,0.0));
#177=VECTOR('',#176,9.500000000000000);
#178=LINE('',#175,#177);
#179=EDGE_CURVE('',#145,#74,#178,.T.);
#180=ORIENTED_EDGE('',*,*,#179,.F.);
#181=ORIENTED_EDGE('',*,*,#165,.F.);
#182=CARTESIAN_POINT('',(4.750000000000000,4.750000000000000,-24.000000000000004));
#183=DIRECTION('',(-1.0,0.0,0.0));
#184=VECTOR('',#183,9.500000000000000);
#185=LINE('',#182,#184);
#186=EDGE_CURVE('',#84,#154,#185,.T.);
#187=ORIENTED_EDGE('',*,*,#186,.F.);
#188=ORIENTED_EDGE('',*,*,#89,.T.);
#189=EDGE_LOOP('',(#180,#181,#187,#188));
#190=FACE_OUTER_BOUND('',#189,.T.);
#191=ADVANCED_FACE('',(#190),#174,.F.);
#192=CARTESIAN_POINT('',(0.0,-5.046468E-017,-11.999999999999996));
#193=DIRECTION('',(0.0,0.0,1.0));
#194=DIRECTION('',(1.0,0.0,0.0));
#195=AXIS2_PLACEMENT_3D('',#192,#193,#194);
#196=PLANE('',#195);
#197=ORIENTED_EDGE('',*,*,#81,.T.);
#198=ORIENTED_EDGE('',*,*,#119,.T.);
#199=ORIENTED_EDGE('',*,*,#150,.T.);
#200=ORIENTED_EDGE('',*,*,#179,.T.);
#201=EDGE_LOOP('',(#197,#198,#199,#200));
#202=FACE_OUTER_BOUND('',#201,.T.);
#203=ADVANCED_FACE('',(#202),#196,.F.);
#204=CARTESIAN_POINT('',(0.0,0.0,0.0));
#205=DIRECTION('',(0.0,0.0,-1.0));
#206=DIRECTION('',(1.0,0.0,0.0));
#207=AXIS2_PLACEMENT_3D('',#204,#205,#206);
#208=CYLINDRICAL_SURFACE('',#207,10.0);
#209=CARTESIAN_POINT('',(-10.0,1.224647E-015,-24.000000000000004));
#210=VERTEX_POINT('',#209);
#211=CARTESIAN_POINT('',(0.0,0.0,-24.000000000000004));
#212=DIRECTION('',(0.0,0.0,1.0));
#213=DIRECTION('',(1.0,0.0,0.0));
#214=AXIS2_PLACEMENT_3D('',#211,#212,#213);
#215=CIRCLE('',#214,10.0);
#216=EDGE_CURVE('',#210,#210,#215,.T.);
#217=ORIENTED_EDGE('',*,*,#216,.T.);
#218=EDGE_LOOP('',(#217));
#219=FACE_OUTER_BOUND('',#218,.T.);
#220=CARTESIAN_POINT('',(-10.0,1.224647E-015,0.0));
#221=VERTEX_POINT('',#220);
#222=CARTESIAN_POINT('',(0.0,0.0,0.0));
#223=DIRECTION('',(0.0,0.0,1.0));
#224=DIRECTION('',(1.0,0.0,0.0));
#225=AXIS2_PLACEMENT_3D('',#222,#223,#224);
#226=CIRCLE('',#225,10.0);
#227=EDGE_CURVE('',#221,#221,#226,.T.);
#228=ORIENTED_EDGE('',*,*,#227,.F.);
#229=EDGE_LOOP('',(#228));
#230=FACE_BOUND('',#229,.T.);
#231=ADVANCED_FACE('',(#219,#230),#208,.T.);
#232=CARTESIAN_POINT('',(0.0,0.0,-24.000000000000004));
#233=DIRECTION('',(0.0,0.0,1.0));
#234=DIRECTION('',(1.0,0.0,0.0));
#235=AXIS2_PLACEMENT_3D('',#232,#233,#234);
#236=PLANE('',#235);
#237=ORIENTED_EDGE('',*,*,#216,.F.);
#238=EDGE_LOOP('',(#237));
#239=FACE_OUTER_BOUND('',#238,.T.);
#240=ORIENTED_EDGE('',*,*,#97,.T.);
#241=ORIENTED_EDGE('',*,*,#186,.T.);
#242=ORIENTED_EDGE('',*,*,#159,.T.);
#243=ORIENTED_EDGE('',*,*,#128,.T.);
#244=EDGE_LOOP('',(#240,#241,#242,#243));
#245=FACE_BOUND('',#244,.T.);
#246=ADVANCED_FACE('',(#239,#245),#236,.F.);
#247=CARTESIAN_POINT('',(-4.927829E-029,-4.440892E-015,159.0));
#248=DIRECTION('',(0.0,-9.860761E-031,1.0));
#249=DIRECTION('',(-1.0,0.0,0.0));
#250=AXIS2_PLACEMENT_3D('',#247,#248,#249);
#251=CYLINDRICAL_SURFACE('',#250,13.250000000000002);
#252=CARTESIAN_POINT('',(13.250000000000002,-2.818235E-015,159.500000000000000));
#253=VERTEX_POINT('',#252);
#254=CARTESIAN_POINT('',(-4.927829E-029,-4.440892E-015,159.500000000000000));
#255=DIRECTION('',(0.0,0.0,-1.0));
#256=DIRECTION('',(-1.0,0.0,0.0));
#257=AXIS2_PLACEMENT_3D('',#254,#255,#256);
#258=CIRCLE('',#257,13.250000000000002);
#259=EDGE_CURVE('',#253,#253,#258,.T.);
#260=ORIENTED_EDGE('',*,*,#259,.T.);
#261=EDGE_LOOP('',(#260));
#262=FACE_OUTER_BOUND('',#261,.T.);
#263=CARTESIAN_POINT('',(13.250000000000002,-2.818235E-015,159.0));
#264=VERTEX_POINT('',#263);
#265=CARTESIAN_POINT('',(-4.927829E-029,-4.440892E-015,159.0));
#266=DIRECTION('',(0.0,0.0,-1.0));
#267=DIRECTION('',(-1.0,0.0,0.0));
#268=AXIS2_PLACEMENT_3D('',#265,#266,#267);
#269=CIRCLE('',#268,13.250000000000002);
#270=EDGE_CURVE('',#264,#264,#269,.T.);
#271=ORIENTED_EDGE('',*,*,#270,.F.);
#272=EDGE_LOOP('',(#271));
#273=FACE_BOUND('',#272,.T.);
#274=ADVANCED_FACE('',(#262,#273),#251,.T.);
#275=CARTESIAN_POINT('',(-4.927829E-029,-4.440892E-015,159.500000000000000));
#276=DIRECTION('',(0.0,0.0,-1.0));
#277=DIRECTION('',(-1.0,0.0,0.0));
#278=AXIS2_PLACEMENT_3D('',#275,#276,#277);
#279=PLANE('',#278);
#280=ORIENTED_EDGE('',*,*,#259,.F.);
#281=EDGE_LOOP('',(#280));
#282=FACE_OUTER_BOUND('',#281,.T.);
#283=ADVANCED_FACE('',(#282),#279,.F.);
#284=CARTESIAN_POINT('',(-10.392304845413252,18.000000000000004,156.0));
#285=DIRECTION('',(0.0,1.0,0.0));
#286=DIRECTION('',(0.0,0.0,1.0));
#287=AXIS2_PLACEMENT_3D('',#284,#285,#286);
#288=PLANE('',#287);
#289=CARTESIAN_POINT('',(-10.392304845413252,18.000000000000004,159.0));
#290=VERTEX_POINT('',#289);
#291=CARTESIAN_POINT('',(10.392304845413271,17.999999999999989,159.0));
#292=VERTEX_POINT('',#291);
#293=CARTESIAN_POINT('',(-10.392304845413252,18.000000000000004,159.0));
#294=DIRECTION('',(1.0,0.0,0.0));
#295=VECTOR('',#294,20.784609690826521);
#296=LINE('',#293,#295);
#297=EDGE_CURVE('',#290,#292,#296,.T.);
#298=ORIENTED_EDGE('',*,*,#297,.T.);
#299=CARTESIAN_POINT('',(10.392304845413271,17.999999999999989,156.0));
#300=VERTEX_POINT('',#299);
#301=CARTESIAN_POINT('',(10.392304845413271,17.999999999999989,156.0));
#302=DIRECTION('',(0.0,0.0,1.0));
#303=VECTOR('',#302,3.0);
#304=LINE('',#301,#303);
#305=EDGE_CURVE('',#300,#292,#304,.T.);
#306=ORIENTED_EDGE('',*,*,#305,.F.);
#307=CARTESIAN_POINT('',(-10.392304845413252,18.000000000000004,156.0));
#308=VERTEX_POINT('',#307);
#309=CARTESIAN_POINT('',(-10.392304845413252,18.000000000000004,156.0));
#310=DIRECTION('',(1.0,0.0,0.0));
#311=VECTOR('',#310,20.784609690826521);
#312=LINE('',#309,#311);
#313=EDGE_CURVE('',#308,#300,#312,.T.);
#314=ORIENTED_EDGE('',*,*,#313,.F.);
#315=CARTESIAN_POINT('',(-10.392304845413252,18.000000000000004,156.0));
#316=DIRECTION('',(0.0,0.0,1.0));
#317=VECTOR('',#316,3.0);
#318=LINE('',#315,#317);
#319=EDGE_CURVE('',#308,#290,#318,.T.);
#320=ORIENTED_EDGE('',*,*,#319,.T.);
#321=EDGE_LOOP('',(#298,#306,#314,#320));
#322=FACE_OUTER_BOUND('',#321,.T.);
#323=ADVANCED_FACE('',(#322),#288,.T.);
#324=CARTESIAN_POINT('',(10.392304845413271,17.999999999999989,156.0));
#325=DIRECTION('',(0.866025403784439,0.500000000000000,0.0));
#326=DIRECTION('',(0.0,0.0,-1.0));
#327=AXIS2_PLACEMENT_3D('',#324,#325,#326);
#328=PLANE('',#327);
#329=CARTESIAN_POINT('',(20.784609690826525,-1.332268E-014,159.0));
#330=VERTEX_POINT('',#329);
#331=CARTESIAN_POINT('',(10.392304845413271,17.999999999999989,159.0));
#332=DIRECTION('',(0.500000000000000,-0.866025403784439,0.0));
#333=VECTOR('',#332,20.784609690826525);
#334=LINE('',#331,#333);
#335=EDGE_CURVE('',#292,#330,#334,.T.);
#336=ORIENTED_EDGE('',*,*,#335,.T.);
#337=CARTESIAN_POINT('',(20.784609690826525,-1.332268E-014,156.0));
#338=VERTEX_POINT('',#337);
#339=CARTESIAN_POINT('',(20.784609690826525,-1.332268E-014,156.0));
#340=DIRECTION('',(0.0,0.0,1.0));
#341=VECTOR('',#340,3.0);
#342=LINE('',#339,#341);
#343=EDGE_CURVE('',#338,#330,#342,.T.);
#344=ORIENTED_EDGE('',*,*,#343,.F.);
#345=CARTESIAN_POINT('',(10.392304845413271,17.999999999999989,156.0));
#346=DIRECTION('',(0.500000000000000,-0.866025403784439,0.0));
#347=VECTOR('',#346,20.784609690826525);
#348=LINE('',#345,#347);
#349=EDGE_CURVE('',#300,#338,#348,.T.);
#350=ORIENTED_EDGE('',*,*,#349,.F.);
#351=ORIENTED_EDGE('',*,*,#305,.T.);
#352=EDGE_LOOP('',(#336,#344,#350,#351));
#353=FACE_OUTER_BOUND('',#352,.T.);
#354=ADVANCED_FACE('',(#353),#328,.T.);
#355=CARTESIAN_POINT('',(20.784609690826525,-1.332268E-014,156.0));
#356=DIRECTION('',(0.866025403784438,-0.500000000000000,0.0));
#357=DIRECTION('',(0.0,0.0,-1.0));
#358=AXIS2_PLACEMENT_3D('',#355,#356,#357);
#359=PLANE('',#358);
#360=CARTESIAN_POINT('',(10.392304845413257,-18.000000000000004,159.0));
#361=VERTEX_POINT('',#360);
#362=CARTESIAN_POINT('',(20.784609690826525,-1.332268E-014,159.0));
#363=DIRECTION('',(-0.500000000000000,-0.866025403784438,0.0));
#364=VECTOR('',#363,20.784609690826521);
#365=LINE('',#362,#364);
#366=EDGE_CURVE('',#330,#361,#365,.T.);
#367=ORIENTED_EDGE('',*,*,#366,.T.);
#368=CARTESIAN_POINT('',(10.392304845413257,-18.000000000000004,156.0));
#369=VERTEX_POINT('',#368);
#370=CARTESIAN_POINT('',(10.392304845413257,-18.000000000000004,156.0));
#371=DIRECTION('',(0.0,0.0,1.0));
#372=VECTOR('',#371,3.0);
#373=LINE('',#370,#372);
#374=EDGE_CURVE('',#369,#361,#373,.T.);
#375=ORIENTED_EDGE('',*,*,#374,.F.);
#376=CARTESIAN_POINT('',(20.784609690826525,-1.332268E-014,156.0));
#377=DIRECTION('',(-0.500000000000000,-0.866025403784438,0.0));
#378=VECTOR('',#377,20.784609690826521);
#379=LINE('',#376,#378);
#380=EDGE_CURVE('',#338,#369,#379,.T.);
#381=ORIENTED_EDGE('',*,*,#380,.F.);
#382=ORIENTED_EDGE('',*,*,#343,.T.);
#383=EDGE_LOOP('',(#367,#375,#381,#382));
#384=FACE_OUTER_BOUND('',#383,.T.);
#385=ADVANCED_FACE('',(#384),#359,.T.);
#386=CARTESIAN_POINT('',(10.392304845413257,-18.000000000000004,156.0));
#387=DIRECTION('',(0.0,-1.0,0.0));
#388=DIRECTION('',(0.0,0.0,-1.0));
#389=AXIS2_PLACEMENT_3D('',#386,#387,#388);
#390=PLANE('',#389);
#391=CARTESIAN_POINT('',(-10.392304845413264,-18.000000000000004,159.0));
#392=VERTEX_POINT('',#391);
#393=CARTESIAN_POINT('',(10.392304845413257,-18.000000000000004,159.0));
#394=DIRECTION('',(-1.0,0.0,0.0));
#395=VECTOR('',#394,20.784609690826521);
#396=LINE('',#393,#395);
#397=EDGE_CURVE('',#361,#392,#396,.T.);
#398=ORIENTED_EDGE('',*,*,#397,.T.);
#399=CARTESIAN_POINT('',(-10.392304845413264,-18.000000000000004,156.0));
#400=VERTEX_POINT('',#399);
#401=CARTESIAN_POINT('',(-10.392304845413264,-18.000000000000004,156.0));
#402=DIRECTION('',(0.0,0.0,1.0));
#403=VECTOR('',#402,3.0);
#404=LINE('',#401,#403);
#405=EDGE_CURVE('',#400,#392,#404,.T.);
#406=ORIENTED_EDGE('',*,*,#405,.F.);
#407=CARTESIAN_POINT('',(10.392304845413257,-18.000000000000004,156.0));
#408=DIRECTION('',(-1.0,0.0,0.0));
#409=VECTOR('',#408,20.784609690826521);
#410=LINE('',#407,#409);
#411=EDGE_CURVE('',#369,#400,#410,.T.);
#412=ORIENTED_EDGE('',*,*,#411,.F.);
#413=ORIENTED_EDGE('',*,*,#374,.T.);
#414=EDGE_LOOP('',(#398,#406,#412,#413));
#415=FACE_OUTER_BOUND('',#414,.T.);
#416=ADVANCED_FACE('',(#415),#390,.T.);
#417=CARTESIAN_POINT('',(-10.392304845413264,-18.000000000000004,156.0));
#418=DIRECTION('',(-0.866025403784439,-0.500000000000000,0.0));
#419=DIRECTION('',(0.0,0.0,1.0));
#420=AXIS2_PLACEMENT_3D('',#417,#418,#419);
#421=PLANE('',#420);
#422=CARTESIAN_POINT('',(-20.784609690826525,-4.440892E-015,159.0));
#423=VERTEX_POINT('',#422);
#424=CARTESIAN_POINT('',(-10.392304845413264,-18.000000000000004,159.0));
#425=DIRECTION('',(-0.500000000000000,0.866025403784439,0.0));
#426=VECTOR('',#425,20.784609690826525);
#427=LINE('',#424,#426);
#428=EDGE_CURVE('',#392,#423,#427,.T.);
#429=ORIENTED_EDGE('',*,*,#428,.T.);
#430=CARTESIAN_POINT('',(-20.784609690826525,-4.440892E-015,156.0));
#431=VERTEX_POINT('',#430);
#432=CARTESIAN_POINT('',(-20.784609690826525,-4.440892E-015,156.0));
#433=DIRECTION('',(0.0,0.0,1.0));
#434=VECTOR('',#433,3.0);
#435=LINE('',#432,#434);
#436=EDGE_CURVE('',#431,#423,#435,.T.);
#437=ORIENTED_EDGE('',*,*,#436,.F.);
#438=CARTESIAN_POINT('',(-10.392304845413264,-18.000000000000004,156.0));
#439=DIRECTION('',(-0.500000000000000,0.866025403784439,0.0));
#440=VECTOR('',#439,20.784609690826525);
#441=LINE('',#438,#440);
#442=EDGE_CURVE('',#400,#431,#441,.T.);
#443=ORIENTED_EDGE('',*,*,#442,.F.);
#444=ORIENTED_EDGE('',*,*,#405,.T.);
#445=EDGE_LOOP('',(#429,#437,#443,#444));
#446=FACE_OUTER_BOUND('',#445,.T.);
#447=ADVANCED_FACE('',(#446),#421,.T.);
#448=CARTESIAN_POINT('',(-20.784609690826525,-4.440892E-015,156.0));
#449=DIRECTION('',(-0.866025403784439,0.500000000000000,0.0));
#450=DIRECTION('',(0.0,0.0,1.0));
#451=AXIS2_PLACEMENT_3D('',#448,#449,#450);
#452=PLANE('',#451);
#453=CARTESIAN_POINT('',(-20.784609690826525,-4.440892E-015,159.0));
#454=DIRECTION('',(0.500000000000000,0.866025403784438,0.0));
#455=VECTOR('',#454,20.784609690826539);
#456=LINE('',#453,#455);
#457=EDGE_CURVE('',#423,#290,#456,.T.);
#458=ORIENTED_EDGE('',*,*,#457,.T.);
#459=ORIENTED_EDGE('',*,*,#319,.F.);
#460=CARTESIAN_POINT('',(-20.784609690826525,-4.440892E-015,156.0));
#461=DIRECTION('',(0.500000000000000,0.866025403784438,0.0));
#462=VECTOR('',#461,20.784609690826539);
#463=LINE('',#460,#462);
#464=EDGE_CURVE('',#431,#308,#463,.T.);
#465=ORIENTED_EDGE('',*,*,#464,.F.);
#466=ORIENTED_EDGE('',*,*,#436,.T.);
#467=EDGE_LOOP('',(#458,#459,#465,#466));
#468=FACE_OUTER_BOUND('',#467,.T.);
#469=ADVANCED_FACE('',(#468),#452,.T.);
#470=CARTESIAN_POINT('',(-1.194331E-015,-3.885781E-015,159.0));
#471=DIRECTION('',(0.0,0.0,1.0));
#472=DIRECTION('',(1.0,0.0,0.0));
#473=AXIS2_PLACEMENT_3D('',#470,#471,#472);
#474=PLANE('',#473);
#475=ORIENTED_EDGE('',*,*,#297,.F.);
#476=ORIENTED_EDGE('',*,*,#457,.F.);
#477=ORIENTED_EDGE('',*,*,#428,.F.);
#478=ORIENTED_EDGE('',*,*,#397,.F.);
#479=ORIENTED_EDGE('',*,*,#366,.F.);
#480=ORIENTED_EDGE('',*,*,#335,.F.);
#481=EDGE_LOOP('',(#475,#476,#477,#478,#479,#480));
#482=FACE_OUTER_BOUND('',#481,.T.);
#483=ORIENTED_EDGE('',*,*,#270,.T.);
#484=EDGE_LOOP('',(#483));
#485=FACE_BOUND('',#484,.T.);
#486=ADVANCED_FACE('',(#482,#485),#474,.T.);
#487=CARTESIAN_POINT('',(0.0,-4.440892E-015,153.0));
#488=DIRECTION('',(0.0,0.0,-1.0));
#489=DIRECTION('',(-1.0,0.0,0.0));
#490=AXIS2_PLACEMENT_3D('',#487,#488,#489);
#491=TOROIDAL_SURFACE('',#490,21.999999999999993,3.000000000000000);
#492=CARTESIAN_POINT('',(0.0,21.999999999999989,156.0));
#493=VERTEX_POINT('',#492);
#494=CARTESIAN_POINT('',(0.0,-4.440892E-015,156.0));
#495=DIRECTION('',(0.0,0.0,-1.0));
#496=DIRECTION('',(0.0,-1.0,0.0));
#497=AXIS2_PLACEMENT_3D('',#494,#495,#496);
#498=CIRCLE('',#497,21.999999999999993);
#499=EDGE_CURVE('',#493,#493,#498,.T.);
#500=ORIENTED_EDGE('',*,*,#499,.T.);
#501=EDGE_LOOP('',(#500));
#502=FACE_OUTER_BOUND('',#501,.T.);
#503=CARTESIAN_POINT('',(0.0,24.999999999999986,153.0));
#504=VERTEX_POINT('',#503);
#505=CARTESIAN_POINT('',(0.0,-4.440892E-015,153.0));
#506=DIRECTION('',(0.0,0.0,-1.0));
#507=DIRECTION('',(0.0,1.0,0.0));
#508=AXIS2_PLACEMENT_3D('',#505,#506,#507);
#509=CIRCLE('',#508,24.999999999999996);
#510=EDGE_CURVE('',#504,#504,#509,.T.);
#511=ORIENTED_EDGE('',*,*,#510,.F.);
#512=EDGE_LOOP('',(#511));
#513=FACE_BOUND('',#512,.T.);
#514=ADVANCED_FACE('',(#502,#513),#491,.T.);
#515=CARTESIAN_POINT('',(0.0,12.499999999999996,156.0));
#516=DIRECTION('',(0.0,0.0,1.0));
#517=DIRECTION('',(1.0,0.0,0.0));
#518=AXIS2_PLACEMENT_3D('',#515,#516,#517);
#519=PLANE('',#518);
#520=ORIENTED_EDGE('',*,*,#499,.F.);
#521=EDGE_LOOP('',(#520));
#522=FACE_OUTER_BOUND('',#521,.T.);
#523=ORIENTED_EDGE('',*,*,#313,.T.);
#524=ORIENTED_EDGE('',*,*,#349,.T.);
#525=ORIENTED_EDGE('',*,*,#380,.T.);
#526=ORIENTED_EDGE('',*,*,#411,.T.);
#527=ORIENTED_EDGE('',*,*,#442,.T.);
#528=ORIENTED_EDGE('',*,*,#464,.T.);
#529=EDGE_LOOP('',(#523,#524,#525,#526,#527,#528));
#530=FACE_BOUND('',#529,.T.);
#531=ADVANCED_FACE('',(#522,#530),#519,.T.);
#532=CARTESIAN_POINT('',(0.0,0.0,0.0));
#533=DIRECTION('',(0.0,0.0,1.0));
#534=DIRECTION('',(-1.0,0.0,0.0));
#535=AXIS2_PLACEMENT_3D('',#532,#533,#534);
#536=CYLINDRICAL_SURFACE('',#535,38.0);
#537=CARTESIAN_POINT('',(38.0,4.653658E-015,153.0));
#538=VERTEX_POINT('',#537);
#539=CARTESIAN_POINT('',(0.0,0.0,153.0));
#540=DIRECTION('',(0.0,0.0,-1.0));
#541=DIRECTION('',(-1.0,0.0,0.0));
#542=AXIS2_PLACEMENT_3D('',#539,#540,#541);
#543=CIRCLE('',#542,38.0);
#544=EDGE_CURVE('',#538,#538,#543,.T.);
#545=ORIENTED_EDGE('',*,*,#544,.T.);
#546=EDGE_LOOP('',(#545));
#547=FACE_OUTER_BOUND('',#546,.T.);
#548=CARTESIAN_POINT('',(38.0,4.653658E-015,0.0));
#549=VERTEX_POINT('',#548);
#550=CARTESIAN_POINT('',(0.0,0.0,0.0));
#551=DIRECTION('',(0.0,0.0,-1.0));
#552=DIRECTION('',(-1.0,0.0,0.0));
#553=AXIS2_PLACEMENT_3D('',#550,#551,#552);
#554=CIRCLE('',#553,38.0);
#555=EDGE_CURVE('',#549,#549,#554,.T.);
#556=ORIENTED_EDGE('',*,*,#555,.F.);
#557=EDGE_LOOP('',(#556));
#558=FACE_BOUND('',#557,.T.);
#559=ADVANCED_FACE('',(#547,#558),#536,.T.);
#560=CARTESIAN_POINT('',(0.0,0.0,153.0));
#561=DIRECTION('',(0.0,0.0,-1.0));
#562=DIRECTION('',(-1.0,0.0,0.0));
#563=AXIS2_PLACEMENT_3D('',#560,#561,#562);
#564=PLANE('',#563);
#565=ORIENTED_EDGE('',*,*,#544,.F.);
#566=EDGE_LOOP('',(#565));
#567=FACE_OUTER_BOUND('',#566,.T.);
#568=ORIENTED_EDGE('',*,*,#510,.T.);
#569=EDGE_LOOP('',(#568));
#570=FACE_BOUND('',#569,.T.);
#571=ADVANCED_FACE('',(#567,#570),#564,.F.);
#572=CARTESIAN_POINT('',(0.0,0.0,0.0));
#573=DIRECTION('',(0.0,0.0,-1.0));
#574=DIRECTION('',(-1.0,0.0,0.0));
#575=AXIS2_PLACEMENT_3D('',#572,#573,#574);
#576=PLANE('',#575);
#577=ORIENTED_EDGE('',*,*,#555,.T.);
#578=EDGE_LOOP('',(#577));
#579=FACE_OUTER_BOUND('',#578,.T.);
#580=ORIENTED_EDGE('',*,*,#227,.T.);
#581=EDGE_LOOP('',(#580));
#582=FACE_BOUND('',#581,.T.);
#583=ADVANCED_FACE('',(#579,#582),#576,.T.);
#584=CLOSED_SHELL('',(#107,#138,#169,#191,#203,#231,#246,#274,#283,#323,#354,#385,#416,#447,#469,#486,#514,#531,#559,#571,#583));
#585=MANIFOLD_SOLID_BREP('',#584);
#586=COLOUR_RGB('Metall - Stahl',0.639216005802155,0.639216005802155,0.686275005340576);
#587=FILL_AREA_STYLE_COLOUR('Metall - Stahl',#586);
#588=FILL_AREA_STYLE('Metall - Stahl',(#587));
#589=SURFACE_STYLE_FILL_AREA(#588);
#590=SURFACE_SIDE_STYLE('Metall - Stahl',(#589));
#591=SURFACE_STYLE_USAGE(.BOTH.,#590);
#592=PRESENTATION_STYLE_ASSIGNMENT((#591));
#593=STYLED_ITEM('',(#592),#585);
#594=MECHANICAL_DESIGN_GEOMETRIC_PRESENTATION_REPRESENTATION('',(#593),#36);
#595=ADVANCED_BREP_SHAPE_REPRESENTATION('ABSR',(#585),#36);
#596=SHAPE_REPRESENTATION_RELATIONSHIP('SRR','None',#595,#41);
ENDSEC;
END-ISO-10303-21;
