ISO-10303-21;
HEADER;
/****************************************************************
 * Generated by software with PDE/Lib inside                    *
 * PDElib Version v51a, created Thu 01/14/2010                  *
 * ITI Transcendata (http://www.transcendata.com/)              *
 ****************************************************************/
FILE_DESCRIPTION((''),'2;1');
FILE_NAME('P:\\2. PROJECTEN\\2017\\PRO.1703.01\\3. ONTWERP\\PRO.1703.01 - 0\\2. PARTS\\200 PIPING\\T-stuk kort - 2.5inch.stp','2017-03-06T12:51:04',('Engineer'),(''),'Autodesk Inventor 2011','Autodesk Inventor 2011','');
FILE_SCHEMA(('AUTOMOTIVE_DESIGN { 1 0 10303 214 1 1 1 1 }'));
ENDSEC;
DATA;
#5=APPLICATION_CONTEXT('automotive design');
#6=APPLICATION_PROTOCOL_DEFINITION('International Standard','automotive_design',2001,#5);
#7=PRODUCT_CONTEXT('',#5,'mechanical');
#8=PRODUCT('T-stuk kort iPart','T-stuk kort iPart',$,(#7));
#9=PRODUCT_RELATED_PRODUCT_CATEGORY('part',$,(#8));
#10=PRODUCT_DEFINITION_FORMATION('',$,#8);
#11=PRODUCT_DEFINITION_CONTEXT('part definition',#5,'design');
#12=PRODUCT_DEFINITION('',$,#10,#11);
#18=(NAMED_UNIT(*)PLANE_ANGLE_UNIT()SI_UNIT($,.RADIAN.));
#19=DIMENSIONAL_EXPONENTS(0.0,0.0,0.0,0.0,0.0,0.0,0.0);
#20=PLANE_ANGLE_MEASURE_WITH_UNIT(PLANE_ANGLE_MEASURE(0.017453292500000),#18);
#24=(CONVERSION_BASED_UNIT('DEGREE',#20)NAMED_UNIT(#19)PLANE_ANGLE_UNIT());
#28=(NAMED_UNIT(*)SI_UNIT($,.STERADIAN.)SOLID_ANGLE_UNIT());
#32=(LENGTH_UNIT()NAMED_UNIT(*)SI_UNIT(.MILLI.,.METRE.));
#34=UNCERTAINTY_MEASURE_WITH_UNIT(LENGTH_MEASURE(0.010000000000000),#32,'DISTANCE_ACCURACY_VALUE','');
#36=(GEOMETRIC_REPRESENTATION_CONTEXT(3)GLOBAL_UNCERTAINTY_ASSIGNED_CONTEXT((#34))GLOBAL_UNIT_ASSIGNED_CONTEXT((#24,#28,#32))REPRESENTATION_CONTEXT('None','None'));
#37=AXIS2_PLACEMENT_3D('',#38,#39,#40);
#38=CARTESIAN_POINT('',(0.0,0.0,0.0));
#39=DIRECTION('',(0.0,0.0,1.0));
#40=DIRECTION('',(1.0,0.0,0.0));
#41=SHAPE_REPRESENTATION('',(#37),#36);
#42=PRODUCT_DEFINITION_SHAPE('','',#12);
#43=SHAPE_DEFINITION_REPRESENTATION(#42,#41);
#49=(NAMED_UNIT(*)PLANE_ANGLE_UNIT()SI_UNIT($,.RADIAN.));
#50=DIMENSIONAL_EXPONENTS(0.0,0.0,0.0,0.0,0.0,0.0,0.0);
#51=PLANE_ANGLE_MEASURE_WITH_UNIT(PLANE_ANGLE_MEASURE(0.017453292500000),#49);
#55=(CONVERSION_BASED_UNIT('DEGREE',#51)NAMED_UNIT(#50)PLANE_ANGLE_UNIT());
#59=(NAMED_UNIT(*)SI_UNIT($,.STERADIAN.)SOLID_ANGLE_UNIT());
#63=(LENGTH_UNIT()NAMED_UNIT(*)SI_UNIT(.MILLI.,.METRE.));
#65=UNCERTAINTY_MEASURE_WITH_UNIT(LENGTH_MEASURE(0.000001000000000),#63,'DISTANCE_ACCURACY_VALUE','');
#67=(GEOMETRIC_REPRESENTATION_CONTEXT(3)GLOBAL_UNCERTAINTY_ASSIGNED_CONTEXT((#65))GLOBAL_UNIT_ASSIGNED_CONTEXT((#55,#59,#63))REPRESENTATION_CONTEXT('','3D'));
#68=CARTESIAN_POINT('',(5.105789E-015,-31.750000000000004,2.005359E-015));
#69=CARTESIAN_POINT('',(5.105789E-015,-31.750000000000004,2.005359E-015));
#70=CARTESIAN_POINT('',(5.105789E-015,-31.750000000000007,2.005359E-015));
#71=CARTESIAN_POINT('',(5.105789E-015,-31.750000000000004,2.005359E-015));
#72=CARTESIAN_POINT('',(5.105789E-015,-31.750000000000004,2.005359E-015));
#73=CARTESIAN_POINT('',(4.749788892927430,-31.750000000000004,4.899388543098372));
#74=CARTESIAN_POINT('',(4.778284064388572,-31.750000000000004,4.870893371637243));
#75=CARTESIAN_POINT('',(4.828150614445535,-31.750000000000007,4.821026821580257));
#76=CARTESIAN_POINT('',(4.878017164502533,-31.750000000000004,4.771160271523273));
#77=CARTESIAN_POINT('',(4.899388543098377,-31.750000000000004,4.749788892927424));
#78=CARTESIAN_POINT('',(14.247655989069649,-29.585360861871713,14.696401059591526));
#79=CARTESIAN_POINT('',(14.331813617268379,-29.559166655185720,14.609830044260047));
#80=CARTESIAN_POINT('',(14.479801139192105,-29.540268924900488,14.458369545381517));
#81=CARTESIAN_POINT('',(14.631400913876409,-29.565549155123602,14.310691670208037));
#82=CARTESIAN_POINT('',(14.696401059591528,-29.585360861871713,14.247655989069655));
#83=CARTESIAN_POINT('',(25.670359346154591,-20.471604635756414,26.478874601151595));
#84=CARTESIAN_POINT('',(25.761663836666486,-20.361311014382473,26.293014296987145));
#85=CARTESIAN_POINT('',(26.013443430704498,-20.271194838482657,25.967201834503200));
#86=CARTESIAN_POINT('',(26.339250238233291,-20.388864234297142,25.738586310286404));
#87=CARTESIAN_POINT('',(26.478874601151588,-20.471604635756414,25.670359346154591));
#88=CARTESIAN_POINT('',(32.014885942768892,-7.307091498443580,33.023228807108083));
#89=CARTESIAN_POINT('',(32.011906019233479,-7.218816125091808,32.720103265520464));
#90=CARTESIAN_POINT('',(32.265638396673651,-7.139966027237357,32.196386145932848));
#91=CARTESIAN_POINT('',(32.796240327706386,-7.241383952267335,32.013043679548744));
#92=CARTESIAN_POINT('',(33.023228807108097,-7.307091498443580,32.014885942768892));
#93=CARTESIAN_POINT('',(32.010200073410545,7.306212934468887,33.018395351313238));
#94=CARTESIAN_POINT('',(32.007763669590005,7.218682512342624,32.715522529724780));
#95=CARTESIAN_POINT('',(32.260813198520346,7.140094201963299,32.191644125987132));
#96=CARTESIAN_POINT('',(32.791377261289909,7.240933256203970,32.008522900813560));
#97=CARTESIAN_POINT('',(33.018395351313224,7.306212934468887,32.010200073410545));
#98=CARTESIAN_POINT('',(25.674323751678191,20.474071130218434,26.482963869841281));
#99=CARTESIAN_POINT('',(25.766653237139568,20.363424899418426,26.297753655288467));
#100=CARTESIAN_POINT('',(26.019047904387477,20.273567510008679,25.972883559820005));
#101=CARTESIAN_POINT('',(26.343788830236207,20.391202092548045,25.743278263801521));
#102=CARTESIAN_POINT('',(26.482963869841285,20.474071130218434,25.674323751678180));
#103=CARTESIAN_POINT('',(14.245385584930396,29.583226172580662,14.694059146660504));
#104=CARTESIAN_POINT('',(14.329361164939540,29.556496559410597,14.607543916663591));
#105=CARTESIAN_POINT('',(14.477847070522854,29.537044394557736,14.456371786824629));
#106=CARTESIAN_POINT('',(14.629189888394560,29.563033892244945,14.308383948343831));
#107=CARTESIAN_POINT('',(14.694059146660486,29.583226172580655,14.245385584930412));
#108=CARTESIAN_POINT('',(4.749788892927430,31.750000000000004,4.899388543098372));
#109=CARTESIAN_POINT('',(4.778284064388573,31.750000000000004,4.870893371637243));
#110=CARTESIAN_POINT('',(4.828150614445537,31.750000000000007,4.821026821580255));
#111=CARTESIAN_POINT('',(4.878017164502536,31.750000000000004,4.771160271523272));
#112=CARTESIAN_POINT('',(4.899388543098381,31.750000000000004,4.749788892927422));
#113=CARTESIAN_POINT('',(5.105789E-015,31.750000000000004,2.005359E-015));
#114=CARTESIAN_POINT('',(5.603762E-015,31.750000000000004,1.507386E-015));
#115=CARTESIAN_POINT('',(6.475215E-015,31.750000000000007,6.359337E-016));
#116=CARTESIAN_POINT('',(7.346667E-015,31.750000000000004,-2.355189E-016));
#117=CARTESIAN_POINT('',(7.720147E-015,31.750000000000004,-6.089986E-016));
#118=B_SPLINE_SURFACE_WITH_KNOTS('',3,3,((#68,#73,#78,#83,#88,#93,#98,#103,#108,#113),(#69,#74,#79,#84,#89,#94,#99,#104,#109,#114),(#70,#75,#80,#85,#90,#95,#100,#105,#110,#115),(#71,#76,#81,#86,#91,#96,#101,#106,#111,#116),(#72,#77,#82,#87,#92,#97,#102,#107,#112,#117)),.UNSPECIFIED.,.F.,.F.,.U.,(4,1,4),(4,1,1,1,1,1,1,4),(0.0,0.571428571428571,1.0),(-1.570796326794897,-1.121997376282069,-0.673198425769241,-0.224399475256414,0.224399475256414,0.673198425769241,1.121997376282069,1.570796326794897),.UNSPECIFIED.);
#119=CARTESIAN_POINT('',(0.0,-31.750000000000004,0.0));
#120=VERTEX_POINT('',#119);
#121=CARTESIAN_POINT('',(0.0,31.750000000000004,0.0));
#122=VERTEX_POINT('',#121);
#123=CARTESIAN_POINT('',(0.0,0.0,0.0));
#124=DIRECTION('',(-0.696060234322251,0.0,0.717983391308778));
#125=DIRECTION('',(0.717983391308778,0.0,0.696060234322251));
#126=AXIS2_PLACEMENT_3D('',#123,#124,#125);
#127=ELLIPSE('',#126,45.613868505093933,31.750000000000000);
#128=EDGE_CURVE('',#120,#122,#127,.T.);
#129=ORIENTED_EDGE('',*,*,#128,.T.);
#130=CARTESIAN_POINT('',(0.0,0.0,0.0));
#131=DIRECTION('',(0.717983391308778,0.0,-0.696060234322251));
#132=DIRECTION('',(0.696060234322251,0.0,0.717983391308778));
#133=AXIS2_PLACEMENT_3D('',#130,#131,#132);
#134=ELLIPSE('',#133,45.613868505093933,31.750000000000000);
#135=EDGE_CURVE('',#122,#120,#134,.T.);
#136=ORIENTED_EDGE('',*,*,#135,.T.);
#137=EDGE_LOOP('',(#129,#136));
#138=FACE_OUTER_BOUND('',#137,.T.);
#139=ADVANCED_FACE('',(#138),#118,.T.);
#140=CARTESIAN_POINT('',(5.105789E-015,31.750000000000004,-2.005359E-015));
#141=CARTESIAN_POINT('',(5.105789E-015,31.750000000000004,-2.005359E-015));
#142=CARTESIAN_POINT('',(5.105789E-015,31.750000000000007,-2.005359E-015));
#143=CARTESIAN_POINT('',(5.105789E-015,31.750000000000004,-2.005359E-015));
#144=CARTESIAN_POINT('',(5.105789E-015,31.750000000000004,-2.005359E-015));
#145=CARTESIAN_POINT('',(4.749788892927430,31.750000000000004,-4.899388543098372));
#146=CARTESIAN_POINT('',(4.778284064388572,31.750000000000004,-4.870893371637243));
#147=CARTESIAN_POINT('',(4.828150614445535,31.750000000000007,-4.821026821580257));
#148=CARTESIAN_POINT('',(4.878017164502533,31.750000000000004,-4.771160271523273));
#149=CARTESIAN_POINT('',(4.899388543098377,31.750000000000004,-4.749788892927424));
#150=CARTESIAN_POINT('',(14.247655989069649,29.585360861871713,-14.696401059591526));
#151=CARTESIAN_POINT('',(14.331813617268379,29.559166655185720,-14.609830044260042));
#152=CARTESIAN_POINT('',(14.479801139192114,29.540268924900488,-14.458369545381530));
#153=CARTESIAN_POINT('',(14.631400913876382,29.565549155123595,-14.310691670208035));
#154=CARTESIAN_POINT('',(14.696401059591517,29.585360861871703,-14.247655989069653));
#155=CARTESIAN_POINT('',(25.670359346154591,20.471604635756414,-26.478874601151595));
#156=CARTESIAN_POINT('',(25.761663836666486,20.361311014382473,-26.293014296987156));
#157=CARTESIAN_POINT('',(26.013443430704484,20.271194838482657,-25.967201834503189));
#158=CARTESIAN_POINT('',(26.339250238233301,20.388864234297145,-25.738586310286408));
#159=CARTESIAN_POINT('',(26.478874601151595,20.471604635756414,-25.670359346154594));
#160=CARTESIAN_POINT('',(32.014885942768892,7.307091498443580,-33.023228807108083));
#161=CARTESIAN_POINT('',(32.011906019233479,7.218816125091801,-32.720103265520464));
#162=CARTESIAN_POINT('',(32.265638396673658,7.139966027237360,-32.196386145932856));
#163=CARTESIAN_POINT('',(32.796240327706364,7.241383952267329,-32.013043679548737));
#164=CARTESIAN_POINT('',(33.023228807108083,7.307091498443579,-32.014885942768878));
#165=CARTESIAN_POINT('',(32.010200073410545,-7.306212934468887,-33.018395351313238));
#166=CARTESIAN_POINT('',(32.007763669590005,-7.218682512342617,-32.715522529724772));
#167=CARTESIAN_POINT('',(32.260813198520331,-7.140094201963299,-32.191644125987139));
#168=CARTESIAN_POINT('',(32.791377261289902,-7.240933256203964,-32.008522900813567));
#169=CARTESIAN_POINT('',(33.018395351313238,-7.306212934468887,-32.010200073410559));
#170=CARTESIAN_POINT('',(25.674323751678191,-20.474071130218434,-26.482963869841281));
#171=CARTESIAN_POINT('',(25.766653237139568,-20.363424899418433,-26.297753655288474));
#172=CARTESIAN_POINT('',(26.019047904387492,-20.273567510008679,-25.972883559819991));
#173=CARTESIAN_POINT('',(26.343788830236221,-20.391202092548049,-25.743278263801521));
#174=CARTESIAN_POINT('',(26.482963869841281,-20.474071130218434,-25.674323751678159));
#175=CARTESIAN_POINT('',(14.245385584930396,-29.583226172580662,-14.694059146660504));
#176=CARTESIAN_POINT('',(14.329361164939549,-29.556496559410590,-14.607543916663580));
#177=CARTESIAN_POINT('',(14.477847070522838,-29.537044394557736,-14.456371786824636));
#178=CARTESIAN_POINT('',(14.629189888394563,-29.563033892244945,-14.308383948343828));
#179=CARTESIAN_POINT('',(14.694059146660495,-29.583226172580662,-14.245385584930419));
#180=CARTESIAN_POINT('',(4.749788892927430,-31.750000000000004,-4.899388543098372));
#181=CARTESIAN_POINT('',(4.778284064388572,-31.750000000000004,-4.870893371637243));
#182=CARTESIAN_POINT('',(4.828150614445535,-31.750000000000007,-4.821026821580257));
#183=CARTESIAN_POINT('',(4.878017164502533,-31.750000000000004,-4.771160271523273));
#184=CARTESIAN_POINT('',(4.899388543098377,-31.750000000000004,-4.749788892927424));
#185=CARTESIAN_POINT('',(5.105789E-015,-31.750000000000004,-2.005359E-015));
#186=CARTESIAN_POINT('',(5.105789E-015,-31.750000000000004,-2.005359E-015));
#187=CARTESIAN_POINT('',(5.105789E-015,-31.750000000000007,-2.005359E-015));
#188=CARTESIAN_POINT('',(5.105789E-015,-31.750000000000004,-2.005359E-015));
#189=CARTESIAN_POINT('',(5.105789E-015,-31.750000000000004,-2.005359E-015));
#190=B_SPLINE_SURFACE_WITH_KNOTS('',3,3,((#140,#145,#150,#155,#160,#165,#170,#175,#180,#185),(#141,#146,#151,#156,#161,#166,#171,#176,#181,#186),(#142,#147,#152,#157,#162,#167,#172,#177,#182,#187),(#143,#148,#153,#158,#163,#168,#173,#178,#183,#188),(#144,#149,#154,#159,#164,#169,#174,#179,#184,#189)),.UNSPECIFIED.,.F.,.F.,.U.,(4,1,4),(4,1,1,1,1,1,1,4),(0.0,0.571428571428571,1.0),(-1.570796326794897,-1.121997376282069,-0.673198425769241,-0.224399475256414,0.224399475256414,0.673198425769241,1.121997376282069,1.570796326794897),.UNSPECIFIED.);
#191=CARTESIAN_POINT('',(0.0,0.0,0.0));
#192=DIRECTION('',(-0.696060234322251,0.0,-0.717983391308778));
#193=DIRECTION('',(0.717983391308778,0.0,-0.696060234322251));
#194=AXIS2_PLACEMENT_3D('',#191,#192,#193);
#195=ELLIPSE('',#194,45.613868505093933,31.750000000000000);
#196=EDGE_CURVE('',#122,#120,#195,.T.);
#197=ORIENTED_EDGE('',*,*,#196,.T.);
#198=CARTESIAN_POINT('',(0.0,0.0,0.0));
#199=DIRECTION('',(0.717983391308778,0.0,0.696060234322251));
#200=DIRECTION('',(0.696060234322251,0.0,-0.717983391308778));
#201=AXIS2_PLACEMENT_3D('',#198,#199,#200);
#202=ELLIPSE('',#201,45.613868505093933,31.750000000000000);
#203=EDGE_CURVE('',#120,#122,#202,.T.);
#204=ORIENTED_EDGE('',*,*,#203,.T.);
#205=EDGE_LOOP('',(#197,#204));
#206=FACE_OUTER_BOUND('',#205,.T.);
#207=ADVANCED_FACE('',(#206),#190,.T.);
#208=CARTESIAN_POINT('',(35.0,0.0,0.0));
#209=DIRECTION('',(-1.0,0.0,0.0));
#210=DIRECTION('',(0.0,-1.0,0.0));
#211=AXIS2_PLACEMENT_3D('',#208,#209,#210);
#212=CYLINDRICAL_SURFACE('',#211,30.100000000000001);
#213=CARTESIAN_POINT('',(0.0,-30.100000000000001,0.0));
#214=VERTEX_POINT('',#213);
#215=CARTESIAN_POINT('',(0.0,30.100000000000001,3.686187E-015));
#216=VERTEX_POINT('',#215);
#217=CARTESIAN_POINT('',(4.440892E-015,0.0,0.0));
#218=DIRECTION('',(0.707106781186548,0.0,0.707106781186548));
#219=DIRECTION('',(-0.707106781186548,0.0,0.707106781186548));
#220=AXIS2_PLACEMENT_3D('',#217,#218,#219);
#221=ELLIPSE('',#220,42.567828227430162,30.100000000000009);
#222=EDGE_CURVE('',#214,#216,#221,.T.);
#223=ORIENTED_EDGE('',*,*,#222,.F.);
#224=CARTESIAN_POINT('',(4.440892E-015,0.0,0.0));
#225=DIRECTION('',(0.707106781186548,0.0,-0.707106781186548));
#226=DIRECTION('',(0.707106781186548,0.0,0.707106781186548));
#227=AXIS2_PLACEMENT_3D('',#224,#225,#226);
#228=ELLIPSE('',#227,42.567828227430162,30.100000000000009);
#229=EDGE_CURVE('',#216,#214,#228,.T.);
#230=ORIENTED_EDGE('',*,*,#229,.F.);
#231=EDGE_LOOP('',(#223,#230));
#232=FACE_OUTER_BOUND('',#231,.T.);
#233=CARTESIAN_POINT('',(35.0,30.100000000000001,3.686187E-015));
#234=VERTEX_POINT('',#233);
#235=CARTESIAN_POINT('',(35.0,0.0,0.0));
#236=DIRECTION('',(-1.0,0.0,0.0));
#237=DIRECTION('',(0.0,-1.0,0.0));
#238=AXIS2_PLACEMENT_3D('',#235,#236,#237);
#239=CIRCLE('',#238,30.100000000000001);
#240=EDGE_CURVE('',#234,#234,#239,.T.);
#241=ORIENTED_EDGE('',*,*,#240,.F.);
#242=EDGE_LOOP('',(#241));
#243=FACE_BOUND('',#242,.T.);
#244=ADVANCED_FACE('',(#232,#243),#212,.F.);
#245=CARTESIAN_POINT('',(35.0,0.0,0.0));
#246=DIRECTION('',(-1.0,0.0,0.0));
#247=DIRECTION('',(0.0,-1.0,0.0));
#248=AXIS2_PLACEMENT_3D('',#245,#246,#247);
#249=CYLINDRICAL_SURFACE('',#248,31.750000000000004);
#250=ORIENTED_EDGE('',*,*,#196,.F.);
#251=ORIENTED_EDGE('',*,*,#128,.F.);
#252=EDGE_LOOP('',(#250,#251));
#253=FACE_OUTER_BOUND('',#252,.T.);
#254=CARTESIAN_POINT('',(35.0,31.750000000000004,3.888254E-015));
#255=VERTEX_POINT('',#254);
#256=CARTESIAN_POINT('',(35.0,0.0,0.0));
#257=DIRECTION('',(-1.0,0.0,0.0));
#258=DIRECTION('',(0.0,-1.0,0.0));
#259=AXIS2_PLACEMENT_3D('',#256,#257,#258);
#260=CIRCLE('',#259,31.750000000000004);
#261=EDGE_CURVE('',#255,#255,#260,.T.);
#262=ORIENTED_EDGE('',*,*,#261,.T.);
#263=EDGE_LOOP('',(#262));
#264=FACE_BOUND('',#263,.T.);
#265=ADVANCED_FACE('',(#253,#264),#249,.T.);
#266=CARTESIAN_POINT('',(35.0,0.0,0.0));
#267=DIRECTION('',(-1.0,0.0,0.0));
#268=DIRECTION('',(0.0,0.0,1.0));
#269=AXIS2_PLACEMENT_3D('',#266,#267,#268);
#270=PLANE('',#269);
#271=ORIENTED_EDGE('',*,*,#261,.F.);
#272=EDGE_LOOP('',(#271));
#273=FACE_OUTER_BOUND('',#272,.T.);
#274=ORIENTED_EDGE('',*,*,#240,.T.);
#275=EDGE_LOOP('',(#274));
#276=FACE_BOUND('',#275,.T.);
#277=ADVANCED_FACE('',(#273,#276),#270,.F.);
#278=CARTESIAN_POINT('',(0.0,0.0,0.0));
#279=DIRECTION('',(0.0,0.0,1.0));
#280=DIRECTION('',(-1.0,0.0,0.0));
#281=AXIS2_PLACEMENT_3D('',#278,#279,#280);
#282=CYLINDRICAL_SURFACE('',#281,31.750000000000004);
#283=CARTESIAN_POINT('',(31.750000000000004,3.888254E-015,114.0));
#284=VERTEX_POINT('',#283);
#285=CARTESIAN_POINT('',(0.0,0.0,114.0));
#286=DIRECTION('',(0.0,0.0,-1.0));
#287=DIRECTION('',(-1.0,0.0,0.0));
#288=AXIS2_PLACEMENT_3D('',#285,#286,#287);
#289=CIRCLE('',#288,31.750000000000004);
#290=EDGE_CURVE('',#284,#284,#289,.T.);
#291=ORIENTED_EDGE('',*,*,#290,.T.);
#292=EDGE_LOOP('',(#291));
#293=FACE_OUTER_BOUND('',#292,.T.);
#294=ORIENTED_EDGE('',*,*,#135,.F.);
#295=ORIENTED_EDGE('',*,*,#203,.F.);
#296=EDGE_LOOP('',(#294,#295));
#297=FACE_BOUND('',#296,.T.);
#298=CARTESIAN_POINT('',(31.750000000000004,3.888254E-015,-114.0));
#299=VERTEX_POINT('',#298);
#300=CARTESIAN_POINT('',(0.0,0.0,-114.0));
#301=DIRECTION('',(0.0,0.0,1.0));
#302=DIRECTION('',(-1.0,0.0,0.0));
#303=AXIS2_PLACEMENT_3D('',#300,#301,#302);
#304=CIRCLE('',#303,31.750000000000004);
#305=EDGE_CURVE('',#299,#299,#304,.T.);
#306=ORIENTED_EDGE('',*,*,#305,.T.);
#307=EDGE_LOOP('',(#306));
#308=FACE_BOUND('',#307,.T.);
#309=ADVANCED_FACE('',(#293,#297,#308),#282,.T.);
#310=CARTESIAN_POINT('',(0.0,0.0,0.0));
#311=DIRECTION('',(0.0,0.0,1.0));
#312=DIRECTION('',(-1.0,0.0,0.0));
#313=AXIS2_PLACEMENT_3D('',#310,#311,#312);
#314=CYLINDRICAL_SURFACE('',#313,30.100000000000001);
#315=CARTESIAN_POINT('',(30.100000000000001,3.686187E-015,-114.0));
#316=VERTEX_POINT('',#315);
#317=CARTESIAN_POINT('',(0.0,0.0,-114.0));
#318=DIRECTION('',(0.0,0.0,1.0));
#319=DIRECTION('',(-1.0,0.0,0.0));
#320=AXIS2_PLACEMENT_3D('',#317,#318,#319);
#321=CIRCLE('',#320,30.100000000000001);
#322=EDGE_CURVE('',#316,#316,#321,.T.);
#323=ORIENTED_EDGE('',*,*,#322,.F.);
#324=EDGE_LOOP('',(#323));
#325=FACE_OUTER_BOUND('',#324,.T.);
#326=ORIENTED_EDGE('',*,*,#222,.T.);
#327=ORIENTED_EDGE('',*,*,#229,.T.);
#328=EDGE_LOOP('',(#326,#327));
#329=FACE_BOUND('',#328,.T.);
#330=CARTESIAN_POINT('',(30.100000000000001,3.686187E-015,114.0));
#331=VERTEX_POINT('',#330);
#332=CARTESIAN_POINT('',(0.0,0.0,114.0));
#333=DIRECTION('',(0.0,0.0,-1.0));
#334=DIRECTION('',(-1.0,0.0,0.0));
#335=AXIS2_PLACEMENT_3D('',#332,#333,#334);
#336=CIRCLE('',#335,30.100000000000001);
#337=EDGE_CURVE('',#331,#331,#336,.T.);
#338=ORIENTED_EDGE('',*,*,#337,.F.);
#339=EDGE_LOOP('',(#338));
#340=FACE_BOUND('',#339,.T.);
#341=ADVANCED_FACE('',(#325,#329,#340),#314,.F.);
#342=CARTESIAN_POINT('',(0.0,0.0,-114.0));
#343=DIRECTION('',(0.0,0.0,-1.0));
#344=DIRECTION('',(-1.0,0.0,0.0));
#345=AXIS2_PLACEMENT_3D('',#342,#343,#344);
#346=PLANE('',#345);
#347=ORIENTED_EDGE('',*,*,#305,.F.);
#348=EDGE_LOOP('',(#347));
#349=FACE_OUTER_BOUND('',#348,.T.);
#350=ORIENTED_EDGE('',*,*,#322,.T.);
#351=EDGE_LOOP('',(#350));
#352=FACE_BOUND('',#351,.T.);
#353=ADVANCED_FACE('',(#349,#352),#346,.T.);
#354=CARTESIAN_POINT('',(0.0,0.0,114.0));
#355=DIRECTION('',(0.0,0.0,-1.0));
#356=DIRECTION('',(-1.0,0.0,0.0));
#357=AXIS2_PLACEMENT_3D('',#354,#355,#356);
#358=PLANE('',#357);
#359=ORIENTED_EDGE('',*,*,#290,.F.);
#360=EDGE_LOOP('',(#359));
#361=FACE_OUTER_BOUND('',#360,.T.);
#362=ORIENTED_EDGE('',*,*,#337,.T.);
#363=EDGE_LOOP('',(#362));
#364=FACE_BOUND('',#363,.T.);
#365=ADVANCED_FACE('',(#361,#364),#358,.F.);
#366=CLOSED_SHELL('',(#139,#207,#244,#265,#277,#309,#341,#353,#365));
#367=MANIFOLD_SOLID_BREP('Solid1',#366);
#368=COLOUR_RGB('Metal-Steel',0.639216005802155,0.639216005802155,0.686275005340576);
#369=FILL_AREA_STYLE_COLOUR('Metal-Steel',#368);
#370=FILL_AREA_STYLE('Metal-Steel',(#369));
#371=SURFACE_STYLE_FILL_AREA(#370);
#372=SURFACE_SIDE_STYLE('Metal-Steel',(#371));
#373=SURFACE_STYLE_USAGE(.BOTH.,#372);
#374=PRESENTATION_STYLE_ASSIGNMENT((#373));
#375=STYLED_ITEM('',(#374),#367);
#376=MECHANICAL_DESIGN_GEOMETRIC_PRESENTATION_REPRESENTATION('',(#375),#36);
#377=ADVANCED_BREP_SHAPE_REPRESENTATION('ABSR',(#367),#36);
#378=SHAPE_REPRESENTATION_RELATIONSHIP('SRR','None',#377,#41);
ENDSEC;
END-ISO-10303-21;
