ISO-10303-21;
HEADER;
/* Generated by software containing ST-Developer
 * from STEP Tools, Inc. (www.steptools.com) 
 */

FILE_DESCRIPTION(
/* description */ (''),
/* implementation_level */ '2;1');

FILE_NAME(
/* name */ '43219.stp',
/* time_stamp */ '2023-09-08T11:23:56+02:00',
/* author */ ('JANAN'),
/* organization */ (''),
/* preprocessor_version */ 'ST-DEVELOPER v19.2',
/* originating_system */ 'Autodesk Inventor 2023',
/* authorisation */ '');

FILE_SCHEMA (('AUTOMOTIVE_DESIGN { 1 0 10303 214 3 1 1 }'));
ENDSEC;

DATA;
#10=MECHANICAL_DESIGN_GEOMETRIC_PRESENTATION_REPRESENTATION('',(#236,#237,
#238,#239,#240,#241,#242,#243,#244,#245,#246,#247,#248,#249,#250,#251,#252,
#253,#254,#255),#515);
#11=SHAPE_REPRESENTATION_RELATIONSHIP('SRR','None',#522,#12);
#12=ADVANCED_BREP_SHAPE_REPRESENTATION('',(#13),#514);
#13=MANIFOLD_SOLID_BREP('Volumenk\X\F6rper2',#275);
#14=FACE_BOUND('',#74,.T.);
#15=FACE_BOUND('',#79,.T.);
#16=FACE_BOUND('',#87,.T.);
#17=TOROIDAL_SURFACE('',#309,34.35,6.);
#18=TOROIDAL_SURFACE('',#312,41.85,5.5);
#19=TOROIDAL_SURFACE('',#325,41.85,3.6);
#20=TOROIDAL_SURFACE('',#330,40.35,2.);
#21=TOROIDAL_SURFACE('',#335,34.35,4.);
#22=TOROIDAL_SURFACE('',#339,38.05,2.);
#23=CONICAL_SURFACE('',#307,40.35,0.698131700798);
#24=CONICAL_SURFACE('',#317,1.,0.785398163397);
#25=CONICAL_SURFACE('',#321,1.,0.785398163397);
#26=CONICAL_SURFACE('',#328,38.8179111138,0.698131700798);
#27=LINE('',#448,#35);
#28=LINE('',#455,#36);
#29=LINE('',#460,#37);
#30=LINE('',#475,#38);
#31=LINE('',#479,#39);
#32=LINE('',#482,#40);
#33=LINE('',#494,#41);
#34=LINE('',#502,#42);
#35=VECTOR('',#352,38.05);
#36=VECTOR('',#361,40.35);
#37=VECTOR('',#368,40.35);
#38=VECTOR('',#389,1.);
#39=VECTOR('',#394,39.1);
#40=VECTOR('',#397,1.);
#41=VECTOR('',#414,38.8179111138);
#42=VECTOR('',#425,38.35);
#43=CYLINDRICAL_SURFACE('',#300,38.05);
#44=CYLINDRICAL_SURFACE('',#304,40.35);
#45=CYLINDRICAL_SURFACE('',#319,39.1);
#46=CYLINDRICAL_SURFACE('',#333,38.35);
#47=FACE_OUTER_BOUND('',#66,.T.);
#48=FACE_OUTER_BOUND('',#67,.T.);
#49=FACE_OUTER_BOUND('',#68,.T.);
#50=FACE_OUTER_BOUND('',#69,.T.);
#51=FACE_OUTER_BOUND('',#70,.T.);
#52=FACE_OUTER_BOUND('',#71,.T.);
#53=FACE_OUTER_BOUND('',#72,.T.);
#54=FACE_OUTER_BOUND('',#73,.T.);
#55=FACE_OUTER_BOUND('',#75,.T.);
#56=FACE_OUTER_BOUND('',#76,.T.);
#57=FACE_OUTER_BOUND('',#77,.T.);
#58=FACE_OUTER_BOUND('',#78,.T.);
#59=FACE_OUTER_BOUND('',#80,.T.);
#60=FACE_OUTER_BOUND('',#81,.T.);
#61=FACE_OUTER_BOUND('',#82,.T.);
#62=FACE_OUTER_BOUND('',#83,.T.);
#63=FACE_OUTER_BOUND('',#84,.T.);
#64=FACE_OUTER_BOUND('',#85,.T.);
#65=FACE_OUTER_BOUND('',#86,.T.);
#66=EDGE_LOOP('',(#165));
#67=EDGE_LOOP('',(#166,#167,#168,#169));
#68=EDGE_LOOP('',(#170));
#69=EDGE_LOOP('',(#171,#172,#173,#174));
#70=EDGE_LOOP('',(#175,#176,#177,#178));
#71=EDGE_LOOP('',(#179,#180,#181,#182));
#72=EDGE_LOOP('',(#183,#184,#185,#186));
#73=EDGE_LOOP('',(#187));
#74=EDGE_LOOP('',(#188));
#75=EDGE_LOOP('',(#189,#190,#191,#192));
#76=EDGE_LOOP('',(#193,#194,#195,#196));
#77=EDGE_LOOP('',(#197,#198,#199,#200));
#78=EDGE_LOOP('',(#201));
#79=EDGE_LOOP('',(#202));
#80=EDGE_LOOP('',(#203,#204,#205,#206));
#81=EDGE_LOOP('',(#207,#208,#209,#210));
#82=EDGE_LOOP('',(#211,#212,#213,#214));
#83=EDGE_LOOP('',(#215,#216,#217,#218));
#84=EDGE_LOOP('',(#219,#220,#221,#222,#223));
#85=EDGE_LOOP('',(#224,#225,#226,#227,#228));
#86=EDGE_LOOP('',(#229));
#87=EDGE_LOOP('',(#230));
#88=CIRCLE('',#299,36.0500027993851);
#89=CIRCLE('',#301,38.05);
#90=CIRCLE('',#302,38.05);
#91=CIRCLE('',#305,40.35);
#92=CIRCLE('',#306,40.35);
#93=CIRCLE('',#308,46.0632444372);
#94=CIRCLE('',#310,6.);
#95=CIRCLE('',#311,38.0542678089078);
#96=CIRCLE('',#313,41.85);
#97=CIRCLE('',#314,5.5);
#98=CIRCLE('',#316,39.5);
#99=CIRCLE('',#318,39.1);
#100=CIRCLE('',#320,39.1);
#101=CIRCLE('',#322,39.5);
#102=CIRCLE('',#324,41.85);
#103=CIRCLE('',#326,44.6077599952);
#104=CIRCLE('',#327,3.6);
#105=CIRCLE('',#329,38.8179111138);
#106=CIRCLE('',#331,38.35);
#107=CIRCLE('',#332,2.);
#108=CIRCLE('',#334,38.35);
#109=CIRCLE('',#336,36.8166666667);
#110=CIRCLE('',#337,36.8166666667);
#111=CIRCLE('',#338,4.);
#112=CIRCLE('',#340,2.);
#113=VERTEX_POINT('',#442);
#114=VERTEX_POINT('',#445);
#115=VERTEX_POINT('',#447);
#116=VERTEX_POINT('',#452);
#117=VERTEX_POINT('',#454);
#118=VERTEX_POINT('',#458);
#119=VERTEX_POINT('',#462);
#120=VERTEX_POINT('',#466);
#121=VERTEX_POINT('',#470);
#122=VERTEX_POINT('',#473);
#123=VERTEX_POINT('',#477);
#124=VERTEX_POINT('',#481);
#125=VERTEX_POINT('',#485);
#126=VERTEX_POINT('',#488);
#127=VERTEX_POINT('',#492);
#128=VERTEX_POINT('',#496);
#129=VERTEX_POINT('',#500);
#130=VERTEX_POINT('',#504);
#131=VERTEX_POINT('',#505);
#132=EDGE_CURVE('',#113,#113,#88,.T.);
#133=EDGE_CURVE('',#114,#114,#89,.T.);
#134=EDGE_CURVE('',#114,#115,#27,.T.);
#135=EDGE_CURVE('',#115,#115,#90,.T.);
#136=EDGE_CURVE('',#116,#116,#91,.T.);
#137=EDGE_CURVE('',#116,#117,#28,.T.);
#138=EDGE_CURVE('',#117,#117,#92,.T.);
#139=EDGE_CURVE('',#118,#118,#93,.T.);
#140=EDGE_CURVE('',#118,#116,#29,.T.);
#141=EDGE_CURVE('',#117,#119,#94,.T.);
#142=EDGE_CURVE('',#119,#119,#95,.T.);
#143=EDGE_CURVE('',#120,#120,#96,.T.);
#144=EDGE_CURVE('',#120,#118,#97,.T.);
#145=EDGE_CURVE('',#121,#121,#98,.T.);
#146=EDGE_CURVE('',#122,#122,#99,.T.);
#147=EDGE_CURVE('',#122,#121,#30,.T.);
#148=EDGE_CURVE('',#123,#123,#100,.T.);
#149=EDGE_CURVE('',#123,#122,#31,.T.);
#150=EDGE_CURVE('',#123,#124,#32,.T.);
#151=EDGE_CURVE('',#124,#124,#101,.T.);
#152=EDGE_CURVE('',#125,#125,#102,.T.);
#153=EDGE_CURVE('',#126,#126,#103,.T.);
#154=EDGE_CURVE('',#126,#125,#104,.T.);
#155=EDGE_CURVE('',#127,#127,#105,.T.);
#156=EDGE_CURVE('',#127,#126,#33,.T.);
#157=EDGE_CURVE('',#128,#128,#106,.T.);
#158=EDGE_CURVE('',#128,#127,#107,.T.);
#159=EDGE_CURVE('',#129,#129,#108,.T.);
#160=EDGE_CURVE('',#129,#128,#34,.T.);
#161=EDGE_CURVE('',#130,#131,#109,.T.);
#162=EDGE_CURVE('',#131,#130,#110,.T.);
#163=EDGE_CURVE('',#131,#129,#111,.T.);
#164=EDGE_CURVE('',#130,#113,#112,.T.);
#165=ORIENTED_EDGE('',*,*,#132,.F.);
#166=ORIENTED_EDGE('',*,*,#133,.F.);
#167=ORIENTED_EDGE('',*,*,#134,.T.);
#168=ORIENTED_EDGE('',*,*,#135,.T.);
#169=ORIENTED_EDGE('',*,*,#134,.F.);
#170=ORIENTED_EDGE('',*,*,#135,.F.);
#171=ORIENTED_EDGE('',*,*,#136,.F.);
#172=ORIENTED_EDGE('',*,*,#137,.T.);
#173=ORIENTED_EDGE('',*,*,#138,.T.);
#174=ORIENTED_EDGE('',*,*,#137,.F.);
#175=ORIENTED_EDGE('',*,*,#139,.F.);
#176=ORIENTED_EDGE('',*,*,#140,.T.);
#177=ORIENTED_EDGE('',*,*,#136,.T.);
#178=ORIENTED_EDGE('',*,*,#140,.F.);
#179=ORIENTED_EDGE('',*,*,#138,.F.);
#180=ORIENTED_EDGE('',*,*,#141,.T.);
#181=ORIENTED_EDGE('',*,*,#142,.T.);
#182=ORIENTED_EDGE('',*,*,#141,.F.);
#183=ORIENTED_EDGE('',*,*,#143,.F.);
#184=ORIENTED_EDGE('',*,*,#144,.T.);
#185=ORIENTED_EDGE('',*,*,#139,.T.);
#186=ORIENTED_EDGE('',*,*,#144,.F.);
#187=ORIENTED_EDGE('',*,*,#143,.T.);
#188=ORIENTED_EDGE('',*,*,#145,.F.);
#189=ORIENTED_EDGE('',*,*,#146,.F.);
#190=ORIENTED_EDGE('',*,*,#147,.T.);
#191=ORIENTED_EDGE('',*,*,#145,.T.);
#192=ORIENTED_EDGE('',*,*,#147,.F.);
#193=ORIENTED_EDGE('',*,*,#148,.F.);
#194=ORIENTED_EDGE('',*,*,#149,.T.);
#195=ORIENTED_EDGE('',*,*,#146,.T.);
#196=ORIENTED_EDGE('',*,*,#149,.F.);
#197=ORIENTED_EDGE('',*,*,#148,.T.);
#198=ORIENTED_EDGE('',*,*,#150,.T.);
#199=ORIENTED_EDGE('',*,*,#151,.F.);
#200=ORIENTED_EDGE('',*,*,#150,.F.);
#201=ORIENTED_EDGE('',*,*,#152,.F.);
#202=ORIENTED_EDGE('',*,*,#151,.T.);
#203=ORIENTED_EDGE('',*,*,#153,.F.);
#204=ORIENTED_EDGE('',*,*,#154,.T.);
#205=ORIENTED_EDGE('',*,*,#152,.T.);
#206=ORIENTED_EDGE('',*,*,#154,.F.);
#207=ORIENTED_EDGE('',*,*,#155,.F.);
#208=ORIENTED_EDGE('',*,*,#156,.T.);
#209=ORIENTED_EDGE('',*,*,#153,.T.);
#210=ORIENTED_EDGE('',*,*,#156,.F.);
#211=ORIENTED_EDGE('',*,*,#157,.F.);
#212=ORIENTED_EDGE('',*,*,#158,.T.);
#213=ORIENTED_EDGE('',*,*,#155,.T.);
#214=ORIENTED_EDGE('',*,*,#158,.F.);
#215=ORIENTED_EDGE('',*,*,#159,.F.);
#216=ORIENTED_EDGE('',*,*,#160,.T.);
#217=ORIENTED_EDGE('',*,*,#157,.T.);
#218=ORIENTED_EDGE('',*,*,#160,.F.);
#219=ORIENTED_EDGE('',*,*,#161,.F.);
#220=ORIENTED_EDGE('',*,*,#162,.F.);
#221=ORIENTED_EDGE('',*,*,#163,.T.);
#222=ORIENTED_EDGE('',*,*,#159,.T.);
#223=ORIENTED_EDGE('',*,*,#163,.F.);
#224=ORIENTED_EDGE('',*,*,#161,.T.);
#225=ORIENTED_EDGE('',*,*,#162,.T.);
#226=ORIENTED_EDGE('',*,*,#164,.T.);
#227=ORIENTED_EDGE('',*,*,#132,.T.);
#228=ORIENTED_EDGE('',*,*,#164,.F.);
#229=ORIENTED_EDGE('',*,*,#142,.F.);
#230=ORIENTED_EDGE('',*,*,#133,.T.);
#231=PLANE('',#298);
#232=PLANE('',#303);
#233=PLANE('',#315);
#234=PLANE('',#323);
#235=PLANE('',#341);
#236=STYLED_ITEM('',(#531),#256);
#237=STYLED_ITEM('',(#531),#257);
#238=STYLED_ITEM('',(#531),#258);
#239=STYLED_ITEM('',(#531),#259);
#240=STYLED_ITEM('',(#531),#260);
#241=STYLED_ITEM('',(#531),#261);
#242=STYLED_ITEM('',(#531),#262);
#243=STYLED_ITEM('',(#531),#263);
#244=STYLED_ITEM('',(#531),#264);
#245=STYLED_ITEM('',(#531),#265);
#246=STYLED_ITEM('',(#531),#266);
#247=STYLED_ITEM('',(#531),#267);
#248=STYLED_ITEM('',(#531),#268);
#249=STYLED_ITEM('',(#531),#269);
#250=STYLED_ITEM('',(#531),#270);
#251=STYLED_ITEM('',(#531),#271);
#252=STYLED_ITEM('',(#531),#272);
#253=STYLED_ITEM('',(#531),#273);
#254=STYLED_ITEM('',(#531),#274);
#255=STYLED_ITEM('',(#531),#13);
#256=ADVANCED_FACE('',(#47),#231,.T.);
#257=ADVANCED_FACE('',(#48),#43,.T.);
#258=ADVANCED_FACE('',(#49),#232,.F.);
#259=ADVANCED_FACE('',(#50),#44,.T.);
#260=ADVANCED_FACE('',(#51),#23,.T.);
#261=ADVANCED_FACE('',(#52),#17,.T.);
#262=ADVANCED_FACE('',(#53),#18,.T.);
#263=ADVANCED_FACE('',(#54,#14),#233,.T.);
#264=ADVANCED_FACE('',(#55),#24,.F.);
#265=ADVANCED_FACE('',(#56),#45,.F.);
#266=ADVANCED_FACE('',(#57),#25,.F.);
#267=ADVANCED_FACE('',(#58,#15),#234,.F.);
#268=ADVANCED_FACE('',(#59),#19,.F.);
#269=ADVANCED_FACE('',(#60),#26,.F.);
#270=ADVANCED_FACE('',(#61),#20,.T.);
#271=ADVANCED_FACE('',(#62),#46,.F.);
#272=ADVANCED_FACE('',(#63),#21,.F.);
#273=ADVANCED_FACE('',(#64),#22,.T.);
#274=ADVANCED_FACE('',(#65,#16),#235,.T.);
#275=CLOSED_SHELL('',(#256,#257,#258,#259,#260,#261,#262,#263,#264,#265,
#266,#267,#268,#269,#270,#271,#272,#273,#274));
#276=DERIVED_UNIT_ELEMENT(#279,1.);
#277=DERIVED_UNIT_ELEMENT(#517,-3.);
#278=DIMENSIONAL_EXPONENTS(0.,1.,0.,0.,0.,0.,0.);
#279=(
CONVERSION_BASED_UNIT('gram',#281)
MASS_UNIT()
NAMED_UNIT(#278)
);
#280=(
MASS_UNIT()
NAMED_UNIT(*)
SI_UNIT(.KILO.,.GRAM.)
);
#281=MASS_MEASURE_WITH_UNIT(MASS_MEASURE(0.001),#280);
#282=DERIVED_UNIT((#276,#277));
#283=MEASURE_REPRESENTATION_ITEM('density measure',
POSITIVE_RATIO_MEASURE(8.),#282);
#284=PROPERTY_DEFINITION_REPRESENTATION(#289,#286);
#285=PROPERTY_DEFINITION_REPRESENTATION(#290,#287);
#286=REPRESENTATION('material name',(#288),#514);
#287=REPRESENTATION('density',(#283),#514);
#288=DESCRIPTIVE_REPRESENTATION_ITEM('Edelstahl','Edelstahl');
#289=PROPERTY_DEFINITION('material property','material name',#524);
#290=PROPERTY_DEFINITION('material property','density of part',#524);
#291=DATE_TIME_ROLE('creation_date');
#292=APPLIED_DATE_AND_TIME_ASSIGNMENT(#293,#291,(#524));
#293=DATE_AND_TIME(#294,#295);
#294=CALENDAR_DATE(2023,8,9);
#295=LOCAL_TIME(0,0,0.,#296);
#296=COORDINATED_UNIVERSAL_TIME_OFFSET(0,0,.BEHIND.);
#297=AXIS2_PLACEMENT_3D('',#440,#342,#343);
#298=AXIS2_PLACEMENT_3D('',#441,#344,#345);
#299=AXIS2_PLACEMENT_3D('',#443,#346,#347);
#300=AXIS2_PLACEMENT_3D('',#444,#348,#349);
#301=AXIS2_PLACEMENT_3D('',#446,#350,#351);
#302=AXIS2_PLACEMENT_3D('',#449,#353,#354);
#303=AXIS2_PLACEMENT_3D('',#450,#355,#356);
#304=AXIS2_PLACEMENT_3D('',#451,#357,#358);
#305=AXIS2_PLACEMENT_3D('',#453,#359,#360);
#306=AXIS2_PLACEMENT_3D('',#456,#362,#363);
#307=AXIS2_PLACEMENT_3D('',#457,#364,#365);
#308=AXIS2_PLACEMENT_3D('',#459,#366,#367);
#309=AXIS2_PLACEMENT_3D('',#461,#369,#370);
#310=AXIS2_PLACEMENT_3D('',#463,#371,#372);
#311=AXIS2_PLACEMENT_3D('',#464,#373,#374);
#312=AXIS2_PLACEMENT_3D('',#465,#375,#376);
#313=AXIS2_PLACEMENT_3D('',#467,#377,#378);
#314=AXIS2_PLACEMENT_3D('',#468,#379,#380);
#315=AXIS2_PLACEMENT_3D('',#469,#381,#382);
#316=AXIS2_PLACEMENT_3D('',#471,#383,#384);
#317=AXIS2_PLACEMENT_3D('',#472,#385,#386);
#318=AXIS2_PLACEMENT_3D('',#474,#387,#388);
#319=AXIS2_PLACEMENT_3D('',#476,#390,#391);
#320=AXIS2_PLACEMENT_3D('',#478,#392,#393);
#321=AXIS2_PLACEMENT_3D('',#480,#395,#396);
#322=AXIS2_PLACEMENT_3D('',#483,#398,#399);
#323=AXIS2_PLACEMENT_3D('',#484,#400,#401);
#324=AXIS2_PLACEMENT_3D('',#486,#402,#403);
#325=AXIS2_PLACEMENT_3D('',#487,#404,#405);
#326=AXIS2_PLACEMENT_3D('',#489,#406,#407);
#327=AXIS2_PLACEMENT_3D('',#490,#408,#409);
#328=AXIS2_PLACEMENT_3D('',#491,#410,#411);
#329=AXIS2_PLACEMENT_3D('',#493,#412,#413);
#330=AXIS2_PLACEMENT_3D('',#495,#415,#416);
#331=AXIS2_PLACEMENT_3D('',#497,#417,#418);
#332=AXIS2_PLACEMENT_3D('',#498,#419,#420);
#333=AXIS2_PLACEMENT_3D('',#499,#421,#422);
#334=AXIS2_PLACEMENT_3D('',#501,#423,#424);
#335=AXIS2_PLACEMENT_3D('',#503,#426,#427);
#336=AXIS2_PLACEMENT_3D('',#506,#428,#429);
#337=AXIS2_PLACEMENT_3D('',#507,#430,#431);
#338=AXIS2_PLACEMENT_3D('',#508,#432,#433);
#339=AXIS2_PLACEMENT_3D('',#509,#434,#435);
#340=AXIS2_PLACEMENT_3D('',#510,#436,#437);
#341=AXIS2_PLACEMENT_3D('',#511,#438,#439);
#342=DIRECTION('axis',(0.,0.,1.));
#343=DIRECTION('refdir',(1.,0.,0.));
#344=DIRECTION('center_axis',(-1.,6.75402896317E-19,-3.46944695195E-18));
#345=DIRECTION('ref_axis',(3.50997903772047E-18,0.0741547989231308,-0.997246742685415));
#346=DIRECTION('center_axis',(1.,5.52435871349231E-16,-9.00484879526005E-16));
#347=DIRECTION('ref_axis',(-9.00484879525065E-16,-1.70145358774927E-12,
-1.));
#348=DIRECTION('center_axis',(-1.,6.75402896317E-19,-3.46944695195E-18));
#349=DIRECTION('ref_axis',(3.50997903772047E-18,0.0741547989231308,-0.997246742685415));
#350=DIRECTION('center_axis',(-1.,0.,0.));
#351=DIRECTION('ref_axis',(0.,0.0741547989231308,-0.997246742685415));
#352=DIRECTION('',(1.,-6.75402896317E-19,3.46944695195E-18));
#353=DIRECTION('center_axis',(-1.,6.75402896317E-19,-3.46944695195E-18));
#354=DIRECTION('ref_axis',(-3.50997903772047E-18,-0.0741547989231308,0.997246742685415));
#355=DIRECTION('center_axis',(-1.,6.75402896317E-19,-3.46944695195E-18));
#356=DIRECTION('ref_axis',(3.50997903772047E-18,0.0741547989231308,-0.997246742685415));
#357=DIRECTION('center_axis',(-1.,0.,0.));
#358=DIRECTION('ref_axis',(0.,0.877582561890372,-0.479425538604204));
#359=DIRECTION('center_axis',(-1.,0.,0.));
#360=DIRECTION('ref_axis',(0.,1.,0.));
#361=DIRECTION('',(1.,0.,0.));
#362=DIRECTION('center_axis',(-1.,0.,0.));
#363=DIRECTION('ref_axis',(0.,1.,0.));
#364=DIRECTION('center_axis',(-1.,0.,0.));
#365=DIRECTION('ref_axis',(0.,0.877582561890372,-0.479425538604204));
#366=DIRECTION('center_axis',(-1.,0.,0.));
#367=DIRECTION('ref_axis',(0.,1.,0.));
#368=DIRECTION('',(0.766044443118806,0.564099197260282,-0.308168795982177));
#369=DIRECTION('center_axis',(-1.,0.,0.));
#370=DIRECTION('ref_axis',(0.,0.877582561890372,-0.479425538604204));
#371=DIRECTION('center_axis',(0.,0.479425538604204,0.877582561890372));
#372=DIRECTION('ref_axis',(0.,-0.877582561890372,0.479425538604204));
#373=DIRECTION('center_axis',(-1.,0.,0.));
#374=DIRECTION('ref_axis',(0.,0.877582561890065,-0.479425538604765));
#375=DIRECTION('center_axis',(-1.,0.,0.));
#376=DIRECTION('ref_axis',(0.,0.877582561890372,-0.479425538604204));
#377=DIRECTION('center_axis',(-1.,0.,0.));
#378=DIRECTION('ref_axis',(0.,1.,0.));
#379=DIRECTION('center_axis',(0.,0.479425538604204,0.877582561890372));
#380=DIRECTION('ref_axis',(0.,-0.877582561890372,0.479425538604204));
#381=DIRECTION('center_axis',(-1.,0.,0.));
#382=DIRECTION('ref_axis',(0.,1.,0.));
#383=DIRECTION('center_axis',(-1.,0.,0.));
#384=DIRECTION('ref_axis',(0.,1.,0.));
#385=DIRECTION('center_axis',(-1.,-4.4408920985E-15,-1.7763568394E-14));
#386=DIRECTION('ref_axis',(4.61905887994572E-15,0.877582561890372,-0.479425538604204));
#387=DIRECTION('center_axis',(-1.,-1.34044615216E-14,-3.37297923658E-14));
#388=DIRECTION('ref_axis',(-1.34044615216E-14,1.,0.));
#389=DIRECTION('',(-0.707106781186868,-0.62054458056347,0.339005049420881));
#390=DIRECTION('center_axis',(-1.,0.,0.));
#391=DIRECTION('ref_axis',(0.,0.877582561890372,-0.479425538604204));
#392=DIRECTION('center_axis',(-1.,0.,0.));
#393=DIRECTION('ref_axis',(0.,1.,0.));
#394=DIRECTION('',(-1.,0.,0.));
#395=DIRECTION('center_axis',(1.,-4.4408920985E-15,-1.7763568394E-14));
#396=DIRECTION('ref_axis',(-4.61905887994572E-15,0.877582561890372,-0.479425538604204));
#397=DIRECTION('',(0.707106781186868,-0.62054458056347,0.339005049420881));
#398=DIRECTION('center_axis',(-1.,5.54610506568E-16,6.59406123221E-15));
#399=DIRECTION('ref_axis',(5.54610506568E-16,1.,0.));
#400=DIRECTION('center_axis',(-1.,0.,0.));
#401=DIRECTION('ref_axis',(0.,1.,0.));
#402=DIRECTION('center_axis',(-1.,0.,0.));
#403=DIRECTION('ref_axis',(0.,1.,0.));
#404=DIRECTION('center_axis',(-1.,0.,0.));
#405=DIRECTION('ref_axis',(0.,0.877582561890372,-0.479425538604204));
#406=DIRECTION('center_axis',(-1.,0.,0.));
#407=DIRECTION('ref_axis',(0.,1.,0.));
#408=DIRECTION('center_axis',(0.,-0.479425538604204,-0.877582561890372));
#409=DIRECTION('ref_axis',(0.,-0.877582561890372,0.479425538604204));
#410=DIRECTION('center_axis',(-1.,0.,0.));
#411=DIRECTION('ref_axis',(0.,0.877582561890372,-0.479425538604204));
#412=DIRECTION('center_axis',(-1.,0.,0.));
#413=DIRECTION('ref_axis',(0.,1.,0.));
#414=DIRECTION('',(-0.766044443118806,-0.564099197260282,0.308168795982177));
#415=DIRECTION('center_axis',(-1.,0.,0.));
#416=DIRECTION('ref_axis',(0.,0.877582561890372,-0.479425538604204));
#417=DIRECTION('center_axis',(-1.,0.,0.));
#418=DIRECTION('ref_axis',(0.,1.,0.));
#419=DIRECTION('center_axis',(0.,0.479425538604204,0.877582561890372));
#420=DIRECTION('ref_axis',(0.,-0.877582561890372,0.479425538604204));
#421=DIRECTION('center_axis',(-1.,0.,0.));
#422=DIRECTION('ref_axis',(0.,0.877582561890372,-0.479425538604204));
#423=DIRECTION('center_axis',(-1.,0.,0.));
#424=DIRECTION('ref_axis',(0.,1.,0.));
#425=DIRECTION('',(-1.,0.,0.));
#426=DIRECTION('center_axis',(-1.,0.,0.));
#427=DIRECTION('ref_axis',(0.,0.877582561890372,-0.479425538604204));
#428=DIRECTION('center_axis',(-1.,0.,0.));
#429=DIRECTION('ref_axis',(0.,1.,0.));
#430=DIRECTION('center_axis',(-1.,0.,0.));
#431=DIRECTION('ref_axis',(0.,1.,0.));
#432=DIRECTION('center_axis',(0.,-0.479425538604204,-0.877582561890372));
#433=DIRECTION('ref_axis',(0.,-0.877582561890372,0.479425538604204));
#434=DIRECTION('center_axis',(1.,6.41455448796E-18,-1.08136329735E-17));
#435=DIRECTION('ref_axis',(1.10883697840215E-17,-1.47824424915E-16,1.));
#436=DIRECTION('center_axis',(-6.41455448796E-18,1.,2.70289104829735E-16));
#437=DIRECTION('ref_axis',(-1.38604622300269E-17,2.70289104829735E-16,-1.));
#438=DIRECTION('center_axis',(1.,0.,0.));
#439=DIRECTION('ref_axis',(0.,1.,0.));
#440=CARTESIAN_POINT('',(0.,0.,0.));
#441=CARTESIAN_POINT('Origin',(-1.28,4.00015649449229E-30,2.));
#442=CARTESIAN_POINT('',(-1.28,-6.13269435235E-11,-34.0500027994));
#443=CARTESIAN_POINT('Origin',(-1.27999999999999,8.88178419700125E-15,2.));
#444=CARTESIAN_POINT('Origin',(-0.28,-6.75402896313E-19,2.));
#445=CARTESIAN_POINT('',(-1.28,-2.82159009902513,39.94523855918));
#446=CARTESIAN_POINT('Origin',(-1.28,4.00003612387076E-30,2.));
#447=CARTESIAN_POINT('',(0.72,-2.82159009902513,39.94523855918));
#448=CARTESIAN_POINT('',(-0.28,-2.82159009902512,39.94523855918));
#449=CARTESIAN_POINT('Origin',(0.72,-1.35080579263E-18,2.));
#450=CARTESIAN_POINT('Origin',(0.72,-1.35080579263E-18,2.));
#451=CARTESIAN_POINT('Origin',(-1.,0.,2.));
#452=CARTESIAN_POINT('',(-43.1558885634,-35.4104563722765,21.3448204826796));
#453=CARTESIAN_POINT('Origin',(-43.1558885634,0.,2.));
#454=CARTESIAN_POINT('',(-6.,-35.4104563722765,21.3448204826796));
#455=CARTESIAN_POINT('',(-1.,-35.4104563722765,21.3448204826796));
#456=CARTESIAN_POINT('Origin',(-6.,0.,2.));
#457=CARTESIAN_POINT('Origin',(-43.1558885634,0.,2.));
#458=CARTESIAN_POINT('',(-49.9646681467406,-40.424300062138,24.0838957741385));
#459=CARTESIAN_POINT('Origin',(-49.9646681467,0.,2.));
#460=CARTESIAN_POINT('',(-43.1558885634,-35.4104563722765,21.3448204826796));
#461=CARTESIAN_POINT('Origin',(-6.,0.,2.));
#462=CARTESIAN_POINT('',(-1.2800000000117,-33.3957618346036,20.2441878404742));
#463=CARTESIAN_POINT('Origin',(-6.,-30.1449610009343,18.4682672510544));
#464=CARTESIAN_POINT('Origin',(-1.2800000000117,2.22044604925031E-14,1.99999999999999));
#465=CARTESIAN_POINT('Origin',(-53.5,0.,2.));
#466=CARTESIAN_POINT('',(-59.,-36.7268302151121,22.0639587905859));
#467=CARTESIAN_POINT('Origin',(-59.,0.,2.));
#468=CARTESIAN_POINT('Origin',(-53.5,-36.7268302151121,22.0639587905859));
#469=CARTESIAN_POINT('Origin',(-59.,39.1,2.));
#470=CARTESIAN_POINT('',(-59.,-34.6645113027,20.9373085772));
#471=CARTESIAN_POINT('Origin',(-59.,-7.1054273576E-15,2.));
#472=CARTESIAN_POINT('Origin',(-20.5000000000009,1.74527059471496E-13,2.00000000000068));
#473=CARTESIAN_POINT('',(-58.6,-34.3134781699,20.7455385594));
#474=CARTESIAN_POINT('Origin',(-58.6,1.7763568394E-15,2.00000000000001));
#475=CARTESIAN_POINT('',(-20.5000000000009,-0.877582561890198,2.47942553860488));
#476=CARTESIAN_POINT('Origin',(-1.,0.,2.));
#477=CARTESIAN_POINT('',(-57.5,-34.3134781699,20.7455385594));
#478=CARTESIAN_POINT('Origin',(-57.5,0.,2.));
#479=CARTESIAN_POINT('',(-1.,-34.3134781699136,20.7455385594244));
#480=CARTESIAN_POINT('Origin',(-95.5999999999991,1.63868918434496E-13,2.00000000000067));
#481=CARTESIAN_POINT('',(-57.1,-34.6645106264,20.9373098151));
#482=CARTESIAN_POINT('',(-95.5999999999991,-0.877582561890209,2.47942553860487));
#483=CARTESIAN_POINT('Origin',(-57.1,-3.55271367883E-15,2.));
#484=CARTESIAN_POINT('Origin',(-57.1,41.85,2.));
#485=CARTESIAN_POINT('',(-57.1,-36.7268302151,22.0639587906));
#486=CARTESIAN_POINT('Origin',(-57.1,0.,2.));
#487=CARTESIAN_POINT('Origin',(-53.5,0.,2.));
#488=CARTESIAN_POINT('',(-51.1859646051,-39.1469922968,23.3860993616));
#489=CARTESIAN_POINT('Origin',(-51.1859646051,0.,2.));
#490=CARTESIAN_POINT('Origin',(-53.5,-36.7268302151121,22.0639587905859));
#491=CARTESIAN_POINT('Origin',(-44.2858914001,0.,2.));
#492=CARTESIAN_POINT('',(-44.2858914001,-34.0659218824,20.6102979432));
#493=CARTESIAN_POINT('Origin',(-44.2858914001,0.,2.));
#494=CARTESIAN_POINT('',(-44.2858914001,-34.0659218824813,20.6102979432237));
#495=CARTESIAN_POINT('Origin',(-43.0003161807,0.,2.));
#496=CARTESIAN_POINT('',(-43.0003161807,-33.6552912485,20.3859694055));
#497=CARTESIAN_POINT('Origin',(-43.0003161807,0.,2.));
#498=CARTESIAN_POINT('Origin',(-43.0003161807,-35.4104563722765,21.3448204826796));
#499=CARTESIAN_POINT('Origin',(-1.,0.,2.));
#500=CARTESIAN_POINT('',(-6.,-33.6552912485,20.3859694055));
#501=CARTESIAN_POINT('Origin',(-6.,0.,2.));
#502=CARTESIAN_POINT('',(-1.,-33.6552912484958,20.3859694054712));
#503=CARTESIAN_POINT('Origin',(-6.,0.,2.));
#504=CARTESIAN_POINT('',(-2.8511024857,-6.26259778592E-11,-34.8166666667));
#505=CARTESIAN_POINT('',(-2.8511024857,-32.3096646536265,19.6508502462941));
#506=CARTESIAN_POINT('Origin',(-2.8511024857,0.,2.));
#507=CARTESIAN_POINT('Origin',(-2.8511024857,0.,2.));
#508=CARTESIAN_POINT('Origin',(-6.,-30.1449610009343,18.4682672510544));
#509=CARTESIAN_POINT('Origin',(-1.27665372855,7.1054273576E-15,2.));
#510=CARTESIAN_POINT('Origin',(-1.27665372855,1.73899277963714E-14,-36.05));
#511=CARTESIAN_POINT('Origin',(-1.28,0.,2.));
#512=UNCERTAINTY_MEASURE_WITH_UNIT(LENGTH_MEASURE(0.01),#516,
'DISTANCE_ACCURACY_VALUE',
'Maximum model space distance between geometric entities at asserted c
onnectivities');
#513=UNCERTAINTY_MEASURE_WITH_UNIT(LENGTH_MEASURE(0.01),#516,
'DISTANCE_ACCURACY_VALUE',
'Maximum model space distance between geometric entities at asserted c
onnectivities');
#514=(
GEOMETRIC_REPRESENTATION_CONTEXT(3)
GLOBAL_UNCERTAINTY_ASSIGNED_CONTEXT((#512))
GLOBAL_UNIT_ASSIGNED_CONTEXT((#516,#518,#519))
REPRESENTATION_CONTEXT('','3D')
);
#515=(
GEOMETRIC_REPRESENTATION_CONTEXT(3)
GLOBAL_UNCERTAINTY_ASSIGNED_CONTEXT((#513))
GLOBAL_UNIT_ASSIGNED_CONTEXT((#516,#518,#519))
REPRESENTATION_CONTEXT('','3D')
);
#516=(
LENGTH_UNIT()
NAMED_UNIT(*)
SI_UNIT(.MILLI.,.METRE.)
);
#517=(
LENGTH_UNIT()
NAMED_UNIT(*)
SI_UNIT(.CENTI.,.METRE.)
);
#518=(
NAMED_UNIT(*)
PLANE_ANGLE_UNIT()
SI_UNIT($,.RADIAN.)
);
#519=(
NAMED_UNIT(*)
SI_UNIT($,.STERADIAN.)
SOLID_ANGLE_UNIT()
);
#520=SHAPE_DEFINITION_REPRESENTATION(#521,#522);
#521=PRODUCT_DEFINITION_SHAPE('',$,#524);
#522=SHAPE_REPRESENTATION('',(#297),#514);
#523=PRODUCT_DEFINITION_CONTEXT('part definition',#528,'design');
#524=PRODUCT_DEFINITION('tmpE93D.tmp','tmpE93D.tmp',#525,#523);
#525=PRODUCT_DEFINITION_FORMATION('',$,#530);
#526=PRODUCT_RELATED_PRODUCT_CATEGORY('tmpE93D.tmp','tmpE93D.tmp',(#530));
#527=APPLICATION_PROTOCOL_DEFINITION('international standard',
'automotive_design',2009,#528);
#528=APPLICATION_CONTEXT(
'Core Data for Automotive Mechanical Design Process');
#529=PRODUCT_CONTEXT('part definition',#528,'mechanical');
#530=PRODUCT('tmpE93D.tmp','tmpE93D.tmp',$,(#529));
#531=PRESENTATION_STYLE_ASSIGNMENT((#532));
#532=SURFACE_STYLE_USAGE(.BOTH.,#535);
#533=SURFACE_STYLE_RENDERING_WITH_PROPERTIES($,#539,(#534));
#534=SURFACE_STYLE_TRANSPARENT(0.);
#535=SURFACE_SIDE_STYLE('',(#536,#533));
#536=SURFACE_STYLE_FILL_AREA(#537);
#537=FILL_AREA_STYLE('',(#538));
#538=FILL_AREA_STYLE_COLOUR('',#539);
#539=COLOUR_RGB('',0.745098039215686,0.737254901960784,0.729411764705882);
ENDSEC;
END-ISO-10303-21;
