ISO-10303-21;
HEADER;
/****************************************************************
 * Generated by software with PDE/Lib inside                    *
 * PDElib Version v51a, created Thu 01/14/2010                  *
 * ITI Transcendata (http://www.transcendata.com/)              *
 ****************************************************************/
FILE_DESCRIPTION((''),'2;1');
FILE_NAME('P:\\2. PROJECTEN\\2017\\PRO.1703.01\\3. ONTWERP\\PRO.1703.01 - 0\\2. PARTS\\200 PIPING\\T-stuk kort - 1.5inch.stp','2017-03-06T12:49:46',('Engineer'),(''),'Autodesk Inventor 2011','Autodesk Inventor 2011','');
FILE_SCHEMA(('AUTOMOTIVE_DESIGN { 1 0 10303 214 1 1 1 1 }'));
ENDSEC;
DATA;
#5=APPLICATION_CONTEXT('automotive design');
#6=APPLICATION_PROTOCOL_DEFINITION('International Standard','automotive_design',2001,#5);
#7=PRODUCT_CONTEXT('',#5,'mechanical');
#8=PRODUCT('T-stuk kort iPart','T-stuk kort iPart',$,(#7));
#9=PRODUCT_RELATED_PRODUCT_CATEGORY('part',$,(#8));
#10=PRODUCT_DEFINITION_FORMATION('',$,#8);
#11=PRODUCT_DEFINITION_CONTEXT('part definition',#5,'design');
#12=PRODUCT_DEFINITION('',$,#10,#11);
#18=(NAMED_UNIT(*)PLANE_ANGLE_UNIT()SI_UNIT($,.RADIAN.));
#19=DIMENSIONAL_EXPONENTS(0.0,0.0,0.0,0.0,0.0,0.0,0.0);
#20=PLANE_ANGLE_MEASURE_WITH_UNIT(PLANE_ANGLE_MEASURE(0.017453292500000),#18);
#24=(CONVERSION_BASED_UNIT('DEGREE',#20)NAMED_UNIT(#19)PLANE_ANGLE_UNIT());
#28=(NAMED_UNIT(*)SI_UNIT($,.STERADIAN.)SOLID_ANGLE_UNIT());
#32=(LENGTH_UNIT()NAMED_UNIT(*)SI_UNIT(.MILLI.,.METRE.));
#34=UNCERTAINTY_MEASURE_WITH_UNIT(LENGTH_MEASURE(0.010000000000000),#32,'DISTANCE_ACCURACY_VALUE','');
#36=(GEOMETRIC_REPRESENTATION_CONTEXT(3)GLOBAL_UNCERTAINTY_ASSIGNED_CONTEXT((#34))GLOBAL_UNIT_ASSIGNED_CONTEXT((#24,#28,#32))REPRESENTATION_CONTEXT('None','None'));
#37=AXIS2_PLACEMENT_3D('',#38,#39,#40);
#38=CARTESIAN_POINT('',(0.0,0.0,0.0));
#39=DIRECTION('',(0.0,0.0,1.0));
#40=DIRECTION('',(1.0,0.0,0.0));
#41=SHAPE_REPRESENTATION('',(#37),#36);
#42=PRODUCT_DEFINITION_SHAPE('','',#12);
#43=SHAPE_DEFINITION_REPRESENTATION(#42,#41);
#49=(NAMED_UNIT(*)PLANE_ANGLE_UNIT()SI_UNIT($,.RADIAN.));
#50=DIMENSIONAL_EXPONENTS(0.0,0.0,0.0,0.0,0.0,0.0,0.0);
#51=PLANE_ANGLE_MEASURE_WITH_UNIT(PLANE_ANGLE_MEASURE(0.017453292500000),#49);
#55=(CONVERSION_BASED_UNIT('DEGREE',#51)NAMED_UNIT(#50)PLANE_ANGLE_UNIT());
#59=(NAMED_UNIT(*)SI_UNIT($,.STERADIAN.)SOLID_ANGLE_UNIT());
#63=(LENGTH_UNIT()NAMED_UNIT(*)SI_UNIT(.MILLI.,.METRE.));
#65=UNCERTAINTY_MEASURE_WITH_UNIT(LENGTH_MEASURE(0.000001000000000),#63,'DISTANCE_ACCURACY_VALUE','');
#67=(GEOMETRIC_REPRESENTATION_CONTEXT(3)GLOBAL_UNCERTAINTY_ASSIGNED_CONTEXT((#65))GLOBAL_UNIT_ASSIGNED_CONTEXT((#55,#59,#63))REPRESENTATION_CONTEXT('','3D'));
#68=CARTESIAN_POINT('',(3.063474E-015,-19.050000000000004,1.203215E-015));
#69=CARTESIAN_POINT('',(3.063474E-015,-19.050000000000004,1.203215E-015));
#70=CARTESIAN_POINT('',(3.063474E-015,-19.050000000000008,1.203215E-015));
#71=CARTESIAN_POINT('',(3.063474E-015,-19.050000000000004,1.203215E-015));
#72=CARTESIAN_POINT('',(3.063474E-015,-19.050000000000004,1.203215E-015));
#73=CARTESIAN_POINT('',(2.849873335756459,-19.050000000000004,2.939633125859022));
#74=CARTESIAN_POINT('',(2.864833300773547,-19.050000000000004,2.924673160841921));
#75=CARTESIAN_POINT('',(2.894753230807752,-19.050000000000008,2.894753230807754));
#76=CARTESIAN_POINT('',(2.924673160841925,-19.050000000000004,2.864833300773540));
#77=CARTESIAN_POINT('',(2.939633125859025,-19.050000000000004,2.849873335756456));
#78=CARTESIAN_POINT('',(8.548593593441789,-17.751216517123034,8.817840635754926));
#79=CARTESIAN_POINT('',(8.592755081630966,-17.737420369268559,8.772371303071489));
#80=CARTESIAN_POINT('',(8.681436060179252,-17.724148929260149,8.681436060179257));
#81=CARTESIAN_POINT('',(8.772371303071507,-17.737420369268566,8.592755081630962));
#82=CARTESIAN_POINT('',(8.817840635754926,-17.751216517123034,8.548593593441785));
#83=CARTESIAN_POINT('',(15.402215607692753,-12.282962781453847,15.887324760690937));
#84=CARTESIAN_POINT('',(15.450084191068960,-12.225052948045601,15.789685450312131));
#85=CARTESIAN_POINT('',(15.594155555836771,-12.162656897236824,15.594155555836771));
#86=CARTESIAN_POINT('',(15.789685450312120,-12.225052948045590,15.450084191068967));
#87=CARTESIAN_POINT('',(15.887324760690937,-12.282962781453845,15.402215607692755));
#88=CARTESIAN_POINT('',(19.208931565661345,-4.384254899066147,19.813937284264863));
#89=CARTESIAN_POINT('',(19.207470295020588,-4.338043988262101,19.654893554755983));
#90=CARTESIAN_POINT('',(19.338489494032331,-4.283934092814325,19.338489494032320));
#91=CARTESIAN_POINT('',(19.654893554756001,-4.338043988262107,19.207470295020574));
#92=CARTESIAN_POINT('',(19.813937284264863,-4.384254899066151,19.208931565661342));
#93=CARTESIAN_POINT('',(19.206120044046330,4.383727760681331,19.811037210787930));
#94=CARTESIAN_POINT('',(19.204880463850706,4.337872961204987,19.652066299233681));
#95=CARTESIAN_POINT('',(19.335588941684346,4.283994619073090,19.335588941684346));
#96=CARTESIAN_POINT('',(19.652066299233663,4.337872961204992,19.204880463850710));
#97=CARTESIAN_POINT('',(19.811037210787941,4.383727760681332,19.206120044046330));
#98=CARTESIAN_POINT('',(15.404594251006909,12.284442678131057,15.889778321904766));
#99=CARTESIAN_POINT('',(15.452989993988131,12.226383904890913,15.792469830017627));
#100=CARTESIAN_POINT('',(15.597538527234834,12.164099520037846,15.597538527234828));
#101=CARTESIAN_POINT('',(15.792469830017652,12.226383904890902,15.452989993988123));
#102=CARTESIAN_POINT('',(15.889778321904760,12.284442678131050,15.404594251006909));
#103=CARTESIAN_POINT('',(8.547231350958247,17.749935703548402,8.816435487996300));
#104=CARTESIAN_POINT('',(8.591323216424526,17.735864094155204,8.771019747275199));
#105=CARTESIAN_POINT('',(8.680264140896995,17.722215220511337,8.680264140897005));
#106=CARTESIAN_POINT('',(8.771019747275192,17.735864094155207,8.591323216424531));
#107=CARTESIAN_POINT('',(8.816435487996300,17.749935703548402,8.547231350958247));
#108=CARTESIAN_POINT('',(2.849873335756459,19.050000000000004,2.939633125859022));
#109=CARTESIAN_POINT('',(2.864833300773547,19.050000000000004,2.924673160841921));
#110=CARTESIAN_POINT('',(2.894753230807752,19.050000000000008,2.894753230807754));
#111=CARTESIAN_POINT('',(2.924673160841925,19.050000000000004,2.864833300773540));
#112=CARTESIAN_POINT('',(2.939633125859025,19.050000000000004,2.849873335756456));
#113=CARTESIAN_POINT('',(3.063474E-015,19.050000000000004,1.203215E-015));
#114=CARTESIAN_POINT('',(3.102865E-015,19.050000000000004,1.163824E-015));
#115=CARTESIAN_POINT('',(3.181647E-015,19.050000000000008,1.085042E-015));
#116=CARTESIAN_POINT('',(3.260429E-015,19.050000000000004,1.006260E-015));
#117=CARTESIAN_POINT('',(3.299821E-015,19.050000000000004,9.668685E-016));
#118=B_SPLINE_SURFACE_WITH_KNOTS('',3,3,((#68,#73,#78,#83,#88,#93,#98,#103,#108,#113),(#69,#74,#79,#84,#89,#94,#99,#104,#109,#114),(#70,#75,#80,#85,#90,#95,#100,#105,#110,#115),(#71,#76,#81,#86,#91,#96,#101,#106,#111,#116),(#72,#77,#82,#87,#92,#97,#102,#107,#112,#117)),.UNSPECIFIED.,.F.,.F.,.U.,(4,1,4),(4,1,1,1,1,1,1,4),(0.0,0.500000000000000,1.0),(-1.570796326794897,-1.121997376282069,-0.673198425769241,-0.224399475256414,0.224399475256414,0.673198425769241,1.121997376282069,1.570796326794897),.UNSPECIFIED.);
#119=CARTESIAN_POINT('',(0.0,-19.050000000000004,0.0));
#120=VERTEX_POINT('',#119);
#121=CARTESIAN_POINT('',(0.0,19.050000000000004,0.0));
#122=VERTEX_POINT('',#121);
#123=CARTESIAN_POINT('',(-2.220446E-015,0.0,0.0));
#124=DIRECTION('',(-0.696060234322251,8.113198E-017,0.717983391308778));
#125=DIRECTION('',(0.717983391308778,0.0,0.696060234322251));
#126=AXIS2_PLACEMENT_3D('',#123,#124,#125);
#127=ELLIPSE('',#126,27.368321103056363,19.050000000000008);
#128=EDGE_CURVE('',#120,#122,#127,.T.);
#129=ORIENTED_EDGE('',*,*,#128,.T.);
#130=CARTESIAN_POINT('',(0.0,0.0,0.0));
#131=DIRECTION('',(0.717983391308778,0.0,-0.696060234322251));
#132=DIRECTION('',(0.696060234322251,0.0,0.717983391308778));
#133=AXIS2_PLACEMENT_3D('',#130,#131,#132);
#134=ELLIPSE('',#133,27.368321103056363,19.050000000000004);
#135=EDGE_CURVE('',#122,#120,#134,.T.);
#136=ORIENTED_EDGE('',*,*,#135,.T.);
#137=EDGE_LOOP('',(#129,#136));
#138=FACE_OUTER_BOUND('',#137,.T.);
#139=ADVANCED_FACE('',(#138),#118,.T.);
#140=CARTESIAN_POINT('',(3.063474E-015,19.050000000000004,-1.203215E-015));
#141=CARTESIAN_POINT('',(3.063474E-015,19.050000000000004,-1.203215E-015));
#142=CARTESIAN_POINT('',(3.063474E-015,19.050000000000008,-1.203215E-015));
#143=CARTESIAN_POINT('',(3.063474E-015,19.050000000000004,-1.203215E-015));
#144=CARTESIAN_POINT('',(3.063474E-015,19.050000000000004,-1.203215E-015));
#145=CARTESIAN_POINT('',(2.849873335756459,19.050000000000004,-2.939633125859022));
#146=CARTESIAN_POINT('',(2.864833300773547,19.050000000000004,-2.924673160841921));
#147=CARTESIAN_POINT('',(2.894753230807752,19.050000000000008,-2.894753230807754));
#148=CARTESIAN_POINT('',(2.924673160841925,19.050000000000004,-2.864833300773540));
#149=CARTESIAN_POINT('',(2.939633125859025,19.050000000000004,-2.849873335756456));
#150=CARTESIAN_POINT('',(8.548593593441789,17.751216517123034,-8.817840635754926));
#151=CARTESIAN_POINT('',(8.592755081630958,17.737420369268559,-8.772371303071495));
#152=CARTESIAN_POINT('',(8.681436060179241,17.724148929260149,-8.681436060179253));
#153=CARTESIAN_POINT('',(8.772371303071507,17.737420369268563,-8.592755081630969));
#154=CARTESIAN_POINT('',(8.817840635754923,17.751216517123034,-8.548593593441787));
#155=CARTESIAN_POINT('',(15.402215607692753,12.282962781453847,-15.887324760690937));
#156=CARTESIAN_POINT('',(15.450084191068974,12.225052948045601,-15.789685450312129));
#157=CARTESIAN_POINT('',(15.594155555836783,12.162656897236824,-15.594155555836778));
#158=CARTESIAN_POINT('',(15.789685450312120,12.225052948045592,-15.450084191068957));
#159=CARTESIAN_POINT('',(15.887324760690941,12.282962781453847,-15.402215607692755));
#160=CARTESIAN_POINT('',(19.208931565661345,4.384254899066147,-19.813937284264863));
#161=CARTESIAN_POINT('',(19.207470295020567,4.338043988262101,-19.654893554755983));
#162=CARTESIAN_POINT('',(19.338489494032316,4.283934092814326,-19.338489494032316));
#163=CARTESIAN_POINT('',(19.654893554756001,4.338043988262105,-19.207470295020588));
#164=CARTESIAN_POINT('',(19.813937284264863,4.384254899066146,-19.208931565661342));
#165=CARTESIAN_POINT('',(19.206120044046330,-4.383727760681331,-19.811037210787930));
#166=CARTESIAN_POINT('',(19.204880463850721,-4.337872961204987,-19.652066299233681));
#167=CARTESIAN_POINT('',(19.335588941684353,-4.283994619073088,-19.335588941684346));
#168=CARTESIAN_POINT('',(19.652066299233674,-4.337872961204990,-19.204880463850703));
#169=CARTESIAN_POINT('',(19.811037210787955,-4.383727760681330,-19.206120044046330));
#170=CARTESIAN_POINT('',(15.404594251006909,-12.284442678131057,-15.889778321904766));
#171=CARTESIAN_POINT('',(15.452989993988119,-12.226383904890913,-15.792469830017630));
#172=CARTESIAN_POINT('',(15.597538527234832,-12.164099520037848,-15.597538527234828));
#173=CARTESIAN_POINT('',(15.792469830017648,-12.226383904890902,-15.452989993988131));
#174=CARTESIAN_POINT('',(15.889778321904755,-12.284442678131057,-15.404594251006911));
#175=CARTESIAN_POINT('',(8.547231350958247,-17.749935703548402,-8.816435487996300));
#176=CARTESIAN_POINT('',(8.591323216424534,-17.735864094155204,-8.771019747275192));
#177=CARTESIAN_POINT('',(8.680264140896998,-17.722215220511334,-8.680264140897005));
#178=CARTESIAN_POINT('',(8.771019747275194,-17.735864094155207,-8.591323216424526));
#179=CARTESIAN_POINT('',(8.816435487996305,-17.749935703548402,-8.547231350958244));
#180=CARTESIAN_POINT('',(2.849873335756459,-19.050000000000004,-2.939633125859022));
#181=CARTESIAN_POINT('',(2.864833300773547,-19.050000000000004,-2.924673160841921));
#182=CARTESIAN_POINT('',(2.894753230807752,-19.050000000000008,-2.894753230807754));
#183=CARTESIAN_POINT('',(2.924673160841925,-19.050000000000004,-2.864833300773540));
#184=CARTESIAN_POINT('',(2.939633125859025,-19.050000000000004,-2.849873335756456));
#185=CARTESIAN_POINT('',(3.063474E-015,-19.050000000000004,-1.203215E-015));
#186=CARTESIAN_POINT('',(3.063474E-015,-19.050000000000004,-1.203215E-015));
#187=CARTESIAN_POINT('',(3.063474E-015,-19.050000000000008,-1.203215E-015));
#188=CARTESIAN_POINT('',(3.063474E-015,-19.050000000000004,-1.203215E-015));
#189=CARTESIAN_POINT('',(3.063474E-015,-19.050000000000004,-1.203215E-015));
#190=B_SPLINE_SURFACE_WITH_KNOTS('',3,3,((#140,#145,#150,#155,#160,#165,#170,#175,#180,#185),(#141,#146,#151,#156,#161,#166,#171,#176,#181,#186),(#142,#147,#152,#157,#162,#167,#172,#177,#182,#187),(#143,#148,#153,#158,#163,#168,#173,#178,#183,#188),(#144,#149,#154,#159,#164,#169,#174,#179,#184,#189)),.UNSPECIFIED.,.F.,.F.,.U.,(4,1,4),(4,1,1,1,1,1,1,4),(0.0,0.500000000000000,1.0),(-1.570796326794897,-1.121997376282069,-0.673198425769241,-0.224399475256414,0.224399475256414,0.673198425769241,1.121997376282069,1.570796326794897),.UNSPECIFIED.);
#191=CARTESIAN_POINT('',(-2.220446E-015,0.0,0.0));
#192=DIRECTION('',(-0.696060234322251,-8.113198E-017,-0.717983391308778));
#193=DIRECTION('',(0.717983391308778,0.0,-0.696060234322251));
#194=AXIS2_PLACEMENT_3D('',#191,#192,#193);
#195=ELLIPSE('',#194,27.368321103056363,19.050000000000008);
#196=EDGE_CURVE('',#122,#120,#195,.T.);
#197=ORIENTED_EDGE('',*,*,#196,.T.);
#198=CARTESIAN_POINT('',(0.0,0.0,0.0));
#199=DIRECTION('',(0.717983391308778,0.0,0.696060234322251));
#200=DIRECTION('',(0.696060234322251,0.0,-0.717983391308778));
#201=AXIS2_PLACEMENT_3D('',#198,#199,#200);
#202=ELLIPSE('',#201,27.368321103056363,19.050000000000004);
#203=EDGE_CURVE('',#120,#122,#202,.T.);
#204=ORIENTED_EDGE('',*,*,#203,.T.);
#205=EDGE_LOOP('',(#197,#204));
#206=FACE_OUTER_BOUND('',#205,.T.);
#207=ADVANCED_FACE('',(#206),#190,.T.);
#208=CARTESIAN_POINT('',(22.0,0.0,0.0));
#209=DIRECTION('',(-1.0,0.0,0.0));
#210=DIRECTION('',(0.0,-1.0,0.0));
#211=AXIS2_PLACEMENT_3D('',#208,#209,#210);
#212=CYLINDRICAL_SURFACE('',#211,17.400000000000002);
#213=CARTESIAN_POINT('',(0.0,-17.400000000000002,0.0));
#214=VERTEX_POINT('',#213);
#215=CARTESIAN_POINT('',(0.0,17.400000000000002,2.130885E-015));
#216=VERTEX_POINT('',#215);
#217=CARTESIAN_POINT('',(0.0,0.0,0.0));
#218=DIRECTION('',(0.707106781186548,0.0,0.707106781186548));
#219=DIRECTION('',(-0.707106781186548,0.0,0.707106781186548));
#220=AXIS2_PLACEMENT_3D('',#217,#218,#219);
#221=ELLIPSE('',#220,24.607315985291855,17.400000000000006);
#222=EDGE_CURVE('',#214,#216,#221,.T.);
#223=ORIENTED_EDGE('',*,*,#222,.F.);
#224=CARTESIAN_POINT('',(0.0,0.0,0.0));
#225=DIRECTION('',(0.707106781186548,0.0,-0.707106781186548));
#226=DIRECTION('',(0.707106781186548,0.0,0.707106781186548));
#227=AXIS2_PLACEMENT_3D('',#224,#225,#226);
#228=ELLIPSE('',#227,24.607315985291855,17.400000000000006);
#229=EDGE_CURVE('',#216,#214,#228,.T.);
#230=ORIENTED_EDGE('',*,*,#229,.F.);
#231=EDGE_LOOP('',(#223,#230));
#232=FACE_OUTER_BOUND('',#231,.T.);
#233=CARTESIAN_POINT('',(22.0,17.400000000000002,2.130885E-015));
#234=VERTEX_POINT('',#233);
#235=CARTESIAN_POINT('',(22.0,0.0,0.0));
#236=DIRECTION('',(-1.0,0.0,0.0));
#237=DIRECTION('',(0.0,-1.0,0.0));
#238=AXIS2_PLACEMENT_3D('',#235,#236,#237);
#239=CIRCLE('',#238,17.400000000000002);
#240=EDGE_CURVE('',#234,#234,#239,.T.);
#241=ORIENTED_EDGE('',*,*,#240,.F.);
#242=EDGE_LOOP('',(#241));
#243=FACE_BOUND('',#242,.T.);
#244=ADVANCED_FACE('',(#232,#243),#212,.F.);
#245=CARTESIAN_POINT('',(22.0,0.0,0.0));
#246=DIRECTION('',(-1.0,0.0,0.0));
#247=DIRECTION('',(0.0,-1.0,0.0));
#248=AXIS2_PLACEMENT_3D('',#245,#246,#247);
#249=CYLINDRICAL_SURFACE('',#248,19.050000000000004);
#250=ORIENTED_EDGE('',*,*,#196,.F.);
#251=ORIENTED_EDGE('',*,*,#128,.F.);
#252=EDGE_LOOP('',(#250,#251));
#253=FACE_OUTER_BOUND('',#252,.T.);
#254=CARTESIAN_POINT('',(22.0,19.050000000000004,2.332952E-015));
#255=VERTEX_POINT('',#254);
#256=CARTESIAN_POINT('',(22.0,0.0,0.0));
#257=DIRECTION('',(-1.0,0.0,0.0));
#258=DIRECTION('',(0.0,-1.0,0.0));
#259=AXIS2_PLACEMENT_3D('',#256,#257,#258);
#260=CIRCLE('',#259,19.050000000000004);
#261=EDGE_CURVE('',#255,#255,#260,.T.);
#262=ORIENTED_EDGE('',*,*,#261,.T.);
#263=EDGE_LOOP('',(#262));
#264=FACE_BOUND('',#263,.T.);
#265=ADVANCED_FACE('',(#253,#264),#249,.T.);
#266=CARTESIAN_POINT('',(22.0,0.0,0.0));
#267=DIRECTION('',(-1.0,0.0,0.0));
#268=DIRECTION('',(0.0,0.0,1.0));
#269=AXIS2_PLACEMENT_3D('',#266,#267,#268);
#270=PLANE('',#269);
#271=ORIENTED_EDGE('',*,*,#261,.F.);
#272=EDGE_LOOP('',(#271));
#273=FACE_OUTER_BOUND('',#272,.T.);
#274=ORIENTED_EDGE('',*,*,#240,.T.);
#275=EDGE_LOOP('',(#274));
#276=FACE_BOUND('',#275,.T.);
#277=ADVANCED_FACE('',(#273,#276),#270,.F.);
#278=CARTESIAN_POINT('',(0.0,0.0,0.0));
#279=DIRECTION('',(0.0,0.0,1.0));
#280=DIRECTION('',(-1.0,0.0,0.0));
#281=AXIS2_PLACEMENT_3D('',#278,#279,#280);
#282=CYLINDRICAL_SURFACE('',#281,19.050000000000004);
#283=CARTESIAN_POINT('',(19.050000000000004,2.332952E-015,64.0));
#284=VERTEX_POINT('',#283);
#285=CARTESIAN_POINT('',(0.0,0.0,64.0));
#286=DIRECTION('',(0.0,0.0,-1.0));
#287=DIRECTION('',(-1.0,0.0,0.0));
#288=AXIS2_PLACEMENT_3D('',#285,#286,#287);
#289=CIRCLE('',#288,19.050000000000004);
#290=EDGE_CURVE('',#284,#284,#289,.T.);
#291=ORIENTED_EDGE('',*,*,#290,.T.);
#292=EDGE_LOOP('',(#291));
#293=FACE_OUTER_BOUND('',#292,.T.);
#294=ORIENTED_EDGE('',*,*,#135,.F.);
#295=ORIENTED_EDGE('',*,*,#203,.F.);
#296=EDGE_LOOP('',(#294,#295));
#297=FACE_BOUND('',#296,.T.);
#298=CARTESIAN_POINT('',(19.050000000000004,2.332952E-015,-64.0));
#299=VERTEX_POINT('',#298);
#300=CARTESIAN_POINT('',(0.0,0.0,-64.0));
#301=DIRECTION('',(0.0,0.0,1.0));
#302=DIRECTION('',(-1.0,0.0,0.0));
#303=AXIS2_PLACEMENT_3D('',#300,#301,#302);
#304=CIRCLE('',#303,19.050000000000004);
#305=EDGE_CURVE('',#299,#299,#304,.T.);
#306=ORIENTED_EDGE('',*,*,#305,.T.);
#307=EDGE_LOOP('',(#306));
#308=FACE_BOUND('',#307,.T.);
#309=ADVANCED_FACE('',(#293,#297,#308),#282,.T.);
#310=CARTESIAN_POINT('',(0.0,0.0,0.0));
#311=DIRECTION('',(0.0,0.0,1.0));
#312=DIRECTION('',(-1.0,0.0,0.0));
#313=AXIS2_PLACEMENT_3D('',#310,#311,#312);
#314=CYLINDRICAL_SURFACE('',#313,17.400000000000002);
#315=CARTESIAN_POINT('',(17.400000000000002,2.130885E-015,-64.0));
#316=VERTEX_POINT('',#315);
#317=CARTESIAN_POINT('',(0.0,0.0,-64.0));
#318=DIRECTION('',(0.0,0.0,1.0));
#319=DIRECTION('',(-1.0,0.0,0.0));
#320=AXIS2_PLACEMENT_3D('',#317,#318,#319);
#321=CIRCLE('',#320,17.400000000000002);
#322=EDGE_CURVE('',#316,#316,#321,.T.);
#323=ORIENTED_EDGE('',*,*,#322,.F.);
#324=EDGE_LOOP('',(#323));
#325=FACE_OUTER_BOUND('',#324,.T.);
#326=ORIENTED_EDGE('',*,*,#222,.T.);
#327=ORIENTED_EDGE('',*,*,#229,.T.);
#328=EDGE_LOOP('',(#326,#327));
#329=FACE_BOUND('',#328,.T.);
#330=CARTESIAN_POINT('',(17.400000000000002,2.130885E-015,64.0));
#331=VERTEX_POINT('',#330);
#332=CARTESIAN_POINT('',(0.0,0.0,64.0));
#333=DIRECTION('',(0.0,0.0,-1.0));
#334=DIRECTION('',(-1.0,0.0,0.0));
#335=AXIS2_PLACEMENT_3D('',#332,#333,#334);
#336=CIRCLE('',#335,17.400000000000002);
#337=EDGE_CURVE('',#331,#331,#336,.T.);
#338=ORIENTED_EDGE('',*,*,#337,.F.);
#339=EDGE_LOOP('',(#338));
#340=FACE_BOUND('',#339,.T.);
#341=ADVANCED_FACE('',(#325,#329,#340),#314,.F.);
#342=CARTESIAN_POINT('',(0.0,0.0,-64.0));
#343=DIRECTION('',(0.0,0.0,-1.0));
#344=DIRECTION('',(-1.0,0.0,0.0));
#345=AXIS2_PLACEMENT_3D('',#342,#343,#344);
#346=PLANE('',#345);
#347=ORIENTED_EDGE('',*,*,#305,.F.);
#348=EDGE_LOOP('',(#347));
#349=FACE_OUTER_BOUND('',#348,.T.);
#350=ORIENTED_EDGE('',*,*,#322,.T.);
#351=EDGE_LOOP('',(#350));
#352=FACE_BOUND('',#351,.T.);
#353=ADVANCED_FACE('',(#349,#352),#346,.T.);
#354=CARTESIAN_POINT('',(0.0,0.0,64.0));
#355=DIRECTION('',(0.0,0.0,-1.0));
#356=DIRECTION('',(-1.0,0.0,0.0));
#357=AXIS2_PLACEMENT_3D('',#354,#355,#356);
#358=PLANE('',#357);
#359=ORIENTED_EDGE('',*,*,#290,.F.);
#360=EDGE_LOOP('',(#359));
#361=FACE_OUTER_BOUND('',#360,.T.);
#362=ORIENTED_EDGE('',*,*,#337,.T.);
#363=EDGE_LOOP('',(#362));
#364=FACE_BOUND('',#363,.T.);
#365=ADVANCED_FACE('',(#361,#364),#358,.F.);
#366=CLOSED_SHELL('',(#139,#207,#244,#265,#277,#309,#341,#353,#365));
#367=MANIFOLD_SOLID_BREP('Solid1',#366);
#368=COLOUR_RGB('Metal-Steel',0.639216005802155,0.639216005802155,0.686275005340576);
#369=FILL_AREA_STYLE_COLOUR('Metal-Steel',#368);
#370=FILL_AREA_STYLE('Metal-Steel',(#369));
#371=SURFACE_STYLE_FILL_AREA(#370);
#372=SURFACE_SIDE_STYLE('Metal-Steel',(#371));
#373=SURFACE_STYLE_USAGE(.BOTH.,#372);
#374=PRESENTATION_STYLE_ASSIGNMENT((#373));
#375=STYLED_ITEM('',(#374),#367);
#376=MECHANICAL_DESIGN_GEOMETRIC_PRESENTATION_REPRESENTATION('',(#375),#36);
#377=ADVANCED_BREP_SHAPE_REPRESENTATION('ABSR',(#367),#36);
#378=SHAPE_REPRESENTATION_RELATIONSHIP('SRR','None',#377,#41);
ENDSEC;
END-ISO-10303-21;
