ISO-10303-21;
HEADER;
/****************************************************************
 * Generated by software with PDE/Lib inside                    *
 * PDElib Version v51a, created Thu 01/14/2010                  *
 * ITI Transcendata (http://www.transcendata.com/)              *
 ****************************************************************/
FILE_DESCRIPTION((''),'2;1');
FILE_NAME('P:\\2. PROJECTEN\\2017\\PRO.1703.01\\3. ONTWERP\\PRO.1703.01 - 0\\2. PARTS\\200 PIPING\\T-stuk kort - 3.0inch.stp','2017-03-06T12:51:48',('Engineer'),(''),'Autodesk Inventor 2011','Autodesk Inventor 2011','');
FILE_SCHEMA(('AUTOMOTIVE_DESIGN { 1 0 10303 214 1 1 1 1 }'));
ENDSEC;
DATA;
#5=APPLICATION_CONTEXT('automotive design');
#6=APPLICATION_PROTOCOL_DEFINITION('International Standard','automotive_design',2001,#5);
#7=PRODUCT_CONTEXT('',#5,'mechanical');
#8=PRODUCT('T-stuk kort iPart','T-stuk kort iPart',$,(#7));
#9=PRODUCT_RELATED_PRODUCT_CATEGORY('part',$,(#8));
#10=PRODUCT_DEFINITION_FORMATION('',$,#8);
#11=PRODUCT_DEFINITION_CONTEXT('part definition',#5,'design');
#12=PRODUCT_DEFINITION('',$,#10,#11);
#18=(NAMED_UNIT(*)PLANE_ANGLE_UNIT()SI_UNIT($,.RADIAN.));
#19=DIMENSIONAL_EXPONENTS(0.0,0.0,0.0,0.0,0.0,0.0,0.0);
#20=PLANE_ANGLE_MEASURE_WITH_UNIT(PLANE_ANGLE_MEASURE(0.017453292500000),#18);
#24=(CONVERSION_BASED_UNIT('DEGREE',#20)NAMED_UNIT(#19)PLANE_ANGLE_UNIT());
#28=(NAMED_UNIT(*)SI_UNIT($,.STERADIAN.)SOLID_ANGLE_UNIT());
#32=(LENGTH_UNIT()NAMED_UNIT(*)SI_UNIT(.MILLI.,.METRE.));
#34=UNCERTAINTY_MEASURE_WITH_UNIT(LENGTH_MEASURE(0.010000000000000),#32,'DISTANCE_ACCURACY_VALUE','');
#36=(GEOMETRIC_REPRESENTATION_CONTEXT(3)GLOBAL_UNCERTAINTY_ASSIGNED_CONTEXT((#34))GLOBAL_UNIT_ASSIGNED_CONTEXT((#24,#28,#32))REPRESENTATION_CONTEXT('None','None'));
#37=AXIS2_PLACEMENT_3D('',#38,#39,#40);
#38=CARTESIAN_POINT('',(0.0,0.0,0.0));
#39=DIRECTION('',(0.0,0.0,1.0));
#40=DIRECTION('',(1.0,0.0,0.0));
#41=SHAPE_REPRESENTATION('',(#37),#36);
#42=PRODUCT_DEFINITION_SHAPE('','',#12);
#43=SHAPE_DEFINITION_REPRESENTATION(#42,#41);
#49=(NAMED_UNIT(*)PLANE_ANGLE_UNIT()SI_UNIT($,.RADIAN.));
#50=DIMENSIONAL_EXPONENTS(0.0,0.0,0.0,0.0,0.0,0.0,0.0);
#51=PLANE_ANGLE_MEASURE_WITH_UNIT(PLANE_ANGLE_MEASURE(0.017453292500000),#49);
#55=(CONVERSION_BASED_UNIT('DEGREE',#51)NAMED_UNIT(#50)PLANE_ANGLE_UNIT());
#59=(NAMED_UNIT(*)SI_UNIT($,.STERADIAN.)SOLID_ANGLE_UNIT());
#63=(LENGTH_UNIT()NAMED_UNIT(*)SI_UNIT(.MILLI.,.METRE.));
#65=UNCERTAINTY_MEASURE_WITH_UNIT(LENGTH_MEASURE(0.000001000000000),#63,'DISTANCE_ACCURACY_VALUE','');
#67=(GEOMETRIC_REPRESENTATION_CONTEXT(3)GLOBAL_UNCERTAINTY_ASSIGNED_CONTEXT((#65))GLOBAL_UNIT_ASSIGNED_CONTEXT((#55,#59,#63))REPRESENTATION_CONTEXT('','3D'));
#68=CARTESIAN_POINT('',(6.126947E-015,-38.100000000000009,2.394184E-015));
#69=CARTESIAN_POINT('',(6.126947E-015,-38.100000000000009,2.394184E-015));
#70=CARTESIAN_POINT('',(6.126947E-015,-38.100000000000001,2.394184E-015));
#71=CARTESIAN_POINT('',(6.126947E-015,-38.100000000000009,2.394184E-015));
#72=CARTESIAN_POINT('',(6.126947E-015,-38.100000000000009,2.394184E-015));
#73=CARTESIAN_POINT('',(5.699746671512918,-38.100000000000009,5.849346321683856));
#74=CARTESIAN_POINT('',(5.728241842974059,-38.100000000000009,5.820851150222732));
#75=CARTESIAN_POINT('',(5.778108393031016,-38.100000000000001,5.770984600165735));
#76=CARTESIAN_POINT('',(5.827974943088021,-38.100000000000009,5.721118050108766));
#77=CARTESIAN_POINT('',(5.849346321683862,-38.100000000000009,5.699746671512913));
#78=CARTESIAN_POINT('',(17.097187232961911,-35.502433018384529,17.545932304693174));
#79=CARTESIAN_POINT('',(17.181344873396686,-35.476238834725976,17.459361289926150));
#80=CARTESIAN_POINT('',(17.329333840635240,-35.457342188356392,17.307902544742412));
#81=CARTESIAN_POINT('',(17.480932152870672,-35.482621321039616,17.160222915934611));
#82=CARTESIAN_POINT('',(17.545932304693174,-35.502433018384529,17.097187232961918));
#83=CARTESIAN_POINT('',(30.804431156045887,-24.565925538056153,31.612946409485446));
#84=CARTESIAN_POINT('',(30.895735655591061,-24.455631910282705,31.427086106717294));
#85=CARTESIAN_POINT('',(31.147518979764392,-24.365523288875849,31.101278235762202));
#86=CARTESIAN_POINT('',(31.473322038005513,-24.483185136620879,30.872658116408090));
#87=CARTESIAN_POINT('',(31.612946409485446,-24.565925538056153,30.804431156045887));
#88=CARTESIAN_POINT('',(38.417863218693633,-8.768509801540215,39.426206085325973));
#89=CARTESIAN_POINT('',(38.414883251779678,-8.680234392760251,39.123080523030268));
#90=CARTESIAN_POINT('',(38.668629787594135,-8.601391255265693,38.599380393973746));
#91=CARTESIAN_POINT('',(39.199217606685416,-8.702802248625737,38.416020940934303));
#92=CARTESIAN_POINT('',(39.426206085325973,-8.768509801540221,38.417863218693633));
#93=CARTESIAN_POINT('',(38.412240020505507,8.767455499796611,39.420435296634317));
#94=CARTESIAN_POINT('',(38.409803600308024,8.679925063697510,39.117562470952123));
#95=CARTESIAN_POINT('',(38.662870132141840,8.601345394720063,38.593704488069854));
#96=CARTESIAN_POINT('',(39.193417214349090,8.702175828208455,38.410562847558118));
#97=CARTESIAN_POINT('',(39.420435296634317,8.767455499796617,38.412240020505507));
#98=CARTESIAN_POINT('',(30.809188569135625,24.568885423185272,31.617828689060381));
#99=CARTESIAN_POINT('',(30.901518082792720,24.458239181203155,31.432618486826968));
#100=CARTESIAN_POINT('',(31.153916724633500,24.368387358098296,31.107753264600525));
#101=CARTESIAN_POINT('',(31.478653648536895,24.486016385146687,30.878143091280393));
#102=CARTESIAN_POINT('',(31.617828689060389,24.568885423185264,30.809188569135625));
#103=CARTESIAN_POINT('',(17.094462665318588,35.499871332941161,17.543136226088141));
#104=CARTESIAN_POINT('',(17.178438264981047,35.473141721556445,17.456621008209826));
#105=CARTESIAN_POINT('',(17.326924346398791,35.453690556385119,17.305449098963670));
#106=CARTESIAN_POINT('',(17.478266972155282,35.479679047314953,17.157461038137843));
#107=CARTESIAN_POINT('',(17.543136226088134,35.499871332941169,17.094462665318588));
#108=CARTESIAN_POINT('',(5.699746671512918,38.100000000000009,5.849346321683856));
#109=CARTESIAN_POINT('',(5.728241842974059,38.100000000000009,5.820851150222732));
#110=CARTESIAN_POINT('',(5.778108393031016,38.100000000000001,5.770984600165735));
#111=CARTESIAN_POINT('',(5.827974943088021,38.100000000000009,5.721118050108766));
#112=CARTESIAN_POINT('',(5.849346321683862,38.100000000000009,5.699746671512913));
#113=CARTESIAN_POINT('',(6.126947E-015,38.100000000000009,2.394184E-015));
#114=CARTESIAN_POINT('',(6.215818E-015,38.100000000000009,2.305314E-015));
#115=CARTESIAN_POINT('',(6.371341E-015,38.100000000000001,2.149790E-015));
#116=CARTESIAN_POINT('',(6.526865E-015,38.100000000000009,1.994267E-015));
#117=CARTESIAN_POINT('',(6.593518E-015,38.100000000000009,1.927614E-015));
#118=B_SPLINE_SURFACE_WITH_KNOTS('',3,3,((#68,#73,#78,#83,#88,#93,#98,#103,#108,#113),(#69,#74,#79,#84,#89,#94,#99,#104,#109,#114),(#70,#75,#80,#85,#90,#95,#100,#105,#110,#115),(#71,#76,#81,#86,#91,#96,#101,#106,#111,#116),(#72,#77,#82,#87,#92,#97,#102,#107,#112,#117)),.UNSPECIFIED.,.F.,.F.,.U.,(4,1,4),(4,1,1,1,1,1,1,4),(0.0,0.571428571428571,1.0),(-1.570796326794897,-1.121997376282069,-0.673198425769241,-0.224399475256414,0.224399475256414,0.673198425769241,1.121997376282069,1.570796326794897),.UNSPECIFIED.);
#119=CARTESIAN_POINT('',(0.0,-38.100000000000009,0.0));
#120=VERTEX_POINT('',#119);
#121=CARTESIAN_POINT('',(0.0,38.100000000000009,0.0));
#122=VERTEX_POINT('',#121);
#123=CARTESIAN_POINT('',(-2.220446E-015,0.0,0.0));
#124=DIRECTION('',(-0.697888820086661,4.067256E-017,0.716206111952452));
#125=DIRECTION('',(0.716206111952452,0.0,0.697888820086661));
#126=AXIS2_PLACEMENT_3D('',#123,#124,#125);
#127=ELLIPSE('',#126,54.593223022642661,38.099999999999994);
#128=EDGE_CURVE('',#120,#122,#127,.T.);
#129=ORIENTED_EDGE('',*,*,#128,.T.);
#130=CARTESIAN_POINT('',(0.0,0.0,0.0));
#131=DIRECTION('',(0.716206111952452,0.0,-0.697888820086661));
#132=DIRECTION('',(0.697888820086661,0.0,0.716206111952452));
#133=AXIS2_PLACEMENT_3D('',#130,#131,#132);
#134=ELLIPSE('',#133,54.593223022642661,38.100000000000001);
#135=EDGE_CURVE('',#122,#120,#134,.T.);
#136=ORIENTED_EDGE('',*,*,#135,.T.);
#137=EDGE_LOOP('',(#129,#136));
#138=FACE_OUTER_BOUND('',#137,.T.);
#139=ADVANCED_FACE('',(#138),#118,.T.);
#140=CARTESIAN_POINT('',(6.126947E-015,38.100000000000009,-2.394184E-015));
#141=CARTESIAN_POINT('',(6.126947E-015,38.100000000000009,-2.394184E-015));
#142=CARTESIAN_POINT('',(6.126947E-015,38.100000000000001,-2.394184E-015));
#143=CARTESIAN_POINT('',(6.126947E-015,38.100000000000009,-2.394184E-015));
#144=CARTESIAN_POINT('',(6.126947E-015,38.100000000000009,-2.394184E-015));
#145=CARTESIAN_POINT('',(5.699746671512918,38.100000000000009,-5.849346321683856));
#146=CARTESIAN_POINT('',(5.728241842974059,38.100000000000009,-5.820851150222732));
#147=CARTESIAN_POINT('',(5.778108393031016,38.100000000000001,-5.770984600165735));
#148=CARTESIAN_POINT('',(5.827974943088021,38.100000000000009,-5.721118050108766));
#149=CARTESIAN_POINT('',(5.849346321683862,38.100000000000009,-5.699746671512913));
#150=CARTESIAN_POINT('',(17.097187232961911,35.502433018384529,-17.545932304693174));
#151=CARTESIAN_POINT('',(17.181344873396686,35.476238834725976,-17.459361289926147));
#152=CARTESIAN_POINT('',(17.329333840635236,35.457342188356392,-17.307902544742404));
#153=CARTESIAN_POINT('',(17.480932152870665,35.482621321039616,-17.160222915934611));
#154=CARTESIAN_POINT('',(17.545932304693174,35.502433018384529,-17.097187232961918));
#155=CARTESIAN_POINT('',(30.804431156045887,24.565925538056153,-31.612946409485446));
#156=CARTESIAN_POINT('',(30.895735655591061,24.455631910282705,-31.427086106717304));
#157=CARTESIAN_POINT('',(31.147518979764403,24.365523288875849,-31.101278235762205));
#158=CARTESIAN_POINT('',(31.473322038005513,24.483185136620879,-30.872658116408090));
#159=CARTESIAN_POINT('',(31.612946409485446,24.565925538056153,-30.804431156045887));
#160=CARTESIAN_POINT('',(38.417863218693633,8.768509801540215,-39.426206085325973));
#161=CARTESIAN_POINT('',(38.414883251779685,8.680234392760251,-39.123080523030261));
#162=CARTESIAN_POINT('',(38.668629787594114,8.601391255265693,-38.599380393973739));
#163=CARTESIAN_POINT('',(39.199217606685416,8.702802248625737,-38.416020940934303));
#164=CARTESIAN_POINT('',(39.426206085325973,8.768509801540217,-38.417863218693633));
#165=CARTESIAN_POINT('',(38.412240020505507,-8.767455499796611,-39.420435296634317));
#166=CARTESIAN_POINT('',(38.409803600308031,-8.679925063697510,-39.117562470952123));
#167=CARTESIAN_POINT('',(38.662870132141848,-8.601345394720063,-38.593704488069868));
#168=CARTESIAN_POINT('',(39.193417214349090,-8.702175828208457,-38.410562847558118));
#169=CARTESIAN_POINT('',(39.420435296634317,-8.767455499796617,-38.412240020505507));
#170=CARTESIAN_POINT('',(30.809188569135625,-24.568885423185272,-31.617828689060381));
#171=CARTESIAN_POINT('',(30.901518082792720,-24.458239181203155,-31.432618486826968));
#172=CARTESIAN_POINT('',(31.153916724633490,-24.368387358098296,-31.107753264600511));
#173=CARTESIAN_POINT('',(31.478653648536895,-24.486016385146684,-30.878143091280393));
#174=CARTESIAN_POINT('',(31.617828689060389,-24.568885423185264,-30.809188569135625));
#175=CARTESIAN_POINT('',(17.094462665318588,-35.499871332941161,-17.543136226088141));
#176=CARTESIAN_POINT('',(17.178438264981047,-35.473141721556445,-17.456621008209826));
#177=CARTESIAN_POINT('',(17.326924346398801,-35.453690556385119,-17.305449098963674));
#178=CARTESIAN_POINT('',(17.478266972155282,-35.479679047314960,-17.157461038137843));
#179=CARTESIAN_POINT('',(17.543136226088134,-35.499871332941169,-17.094462665318588));
#180=CARTESIAN_POINT('',(5.699746671512918,-38.100000000000009,-5.849346321683856));
#181=CARTESIAN_POINT('',(5.728241842974059,-38.100000000000009,-5.820851150222732));
#182=CARTESIAN_POINT('',(5.778108393031016,-38.100000000000001,-5.770984600165735));
#183=CARTESIAN_POINT('',(5.827974943088021,-38.100000000000009,-5.721118050108766));
#184=CARTESIAN_POINT('',(5.849346321683862,-38.100000000000009,-5.699746671512913));
#185=CARTESIAN_POINT('',(6.126947E-015,-38.100000000000009,-2.394184E-015));
#186=CARTESIAN_POINT('',(6.126947E-015,-38.100000000000009,-2.394184E-015));
#187=CARTESIAN_POINT('',(6.126947E-015,-38.100000000000001,-2.394184E-015));
#188=CARTESIAN_POINT('',(6.126947E-015,-38.100000000000009,-2.394184E-015));
#189=CARTESIAN_POINT('',(6.126947E-015,-38.100000000000009,-2.394184E-015));
#190=B_SPLINE_SURFACE_WITH_KNOTS('',3,3,((#140,#145,#150,#155,#160,#165,#170,#175,#180,#185),(#141,#146,#151,#156,#161,#166,#171,#176,#181,#186),(#142,#147,#152,#157,#162,#167,#172,#177,#182,#187),(#143,#148,#153,#158,#163,#168,#173,#178,#183,#188),(#144,#149,#154,#159,#164,#169,#174,#179,#184,#189)),.UNSPECIFIED.,.F.,.F.,.U.,(4,1,4),(4,1,1,1,1,1,1,4),(0.0,0.571428571428571,1.0),(-1.570796326794897,-1.121997376282069,-0.673198425769241,-0.224399475256414,0.224399475256414,0.673198425769241,1.121997376282069,1.570796326794897),.UNSPECIFIED.);
#191=CARTESIAN_POINT('',(-2.220446E-015,0.0,0.0));
#192=DIRECTION('',(-0.697888820086661,-4.067256E-017,-0.716206111952452));
#193=DIRECTION('',(0.716206111952452,0.0,-0.697888820086661));
#194=AXIS2_PLACEMENT_3D('',#191,#192,#193);
#195=ELLIPSE('',#194,54.593223022642661,38.099999999999994);
#196=EDGE_CURVE('',#122,#120,#195,.T.);
#197=ORIENTED_EDGE('',*,*,#196,.T.);
#198=CARTESIAN_POINT('',(0.0,0.0,0.0));
#199=DIRECTION('',(0.716206111952452,0.0,0.697888820086661));
#200=DIRECTION('',(0.697888820086661,0.0,-0.716206111952452));
#201=AXIS2_PLACEMENT_3D('',#198,#199,#200);
#202=ELLIPSE('',#201,54.593223022642661,38.100000000000001);
#203=EDGE_CURVE('',#120,#122,#202,.T.);
#204=ORIENTED_EDGE('',*,*,#203,.T.);
#205=EDGE_LOOP('',(#197,#204));
#206=FACE_OUTER_BOUND('',#205,.T.);
#207=ADVANCED_FACE('',(#206),#190,.T.);
#208=CARTESIAN_POINT('',(41.000000000000007,0.0,0.0));
#209=DIRECTION('',(-1.0,0.0,0.0));
#210=DIRECTION('',(0.0,-1.0,0.0));
#211=AXIS2_PLACEMENT_3D('',#208,#209,#210);
#212=CYLINDRICAL_SURFACE('',#211,36.450000000000003);
#213=CARTESIAN_POINT('',(0.0,-36.450000000000003,0.0));
#214=VERTEX_POINT('',#213);
#215=CARTESIAN_POINT('',(0.0,36.450000000000003,4.463838E-015));
#216=VERTEX_POINT('',#215);
#217=CARTESIAN_POINT('',(0.0,0.0,0.0));
#218=DIRECTION('',(0.707106781186548,0.0,0.707106781186548));
#219=DIRECTION('',(-0.707106781186548,0.0,0.707106781186548));
#220=AXIS2_PLACEMENT_3D('',#217,#218,#219);
#221=ELLIPSE('',#220,51.548084348499316,36.450000000000010);
#222=EDGE_CURVE('',#214,#216,#221,.T.);
#223=ORIENTED_EDGE('',*,*,#222,.F.);
#224=CARTESIAN_POINT('',(0.0,0.0,0.0));
#225=DIRECTION('',(0.707106781186548,0.0,-0.707106781186548));
#226=DIRECTION('',(0.707106781186548,0.0,0.707106781186548));
#227=AXIS2_PLACEMENT_3D('',#224,#225,#226);
#228=ELLIPSE('',#227,51.548084348499316,36.450000000000010);
#229=EDGE_CURVE('',#216,#214,#228,.T.);
#230=ORIENTED_EDGE('',*,*,#229,.F.);
#231=EDGE_LOOP('',(#223,#230));
#232=FACE_OUTER_BOUND('',#231,.T.);
#233=CARTESIAN_POINT('',(41.000000000000007,36.450000000000003,4.463838E-015));
#234=VERTEX_POINT('',#233);
#235=CARTESIAN_POINT('',(41.000000000000007,0.0,0.0));
#236=DIRECTION('',(-1.0,0.0,0.0));
#237=DIRECTION('',(0.0,-1.0,0.0));
#238=AXIS2_PLACEMENT_3D('',#235,#236,#237);
#239=CIRCLE('',#238,36.450000000000003);
#240=EDGE_CURVE('',#234,#234,#239,.T.);
#241=ORIENTED_EDGE('',*,*,#240,.F.);
#242=EDGE_LOOP('',(#241));
#243=FACE_BOUND('',#242,.T.);
#244=ADVANCED_FACE('',(#232,#243),#212,.F.);
#245=CARTESIAN_POINT('',(41.000000000000007,0.0,0.0));
#246=DIRECTION('',(-1.0,0.0,0.0));
#247=DIRECTION('',(0.0,-1.0,0.0));
#248=AXIS2_PLACEMENT_3D('',#245,#246,#247);
#249=CYLINDRICAL_SURFACE('',#248,38.100000000000009);
#250=ORIENTED_EDGE('',*,*,#196,.F.);
#251=ORIENTED_EDGE('',*,*,#128,.F.);
#252=EDGE_LOOP('',(#250,#251));
#253=FACE_OUTER_BOUND('',#252,.T.);
#254=CARTESIAN_POINT('',(41.000000000000007,38.100000000000009,4.665904E-015));
#255=VERTEX_POINT('',#254);
#256=CARTESIAN_POINT('',(41.000000000000007,0.0,0.0));
#257=DIRECTION('',(-1.0,0.0,0.0));
#258=DIRECTION('',(0.0,-1.0,0.0));
#259=AXIS2_PLACEMENT_3D('',#256,#257,#258);
#260=CIRCLE('',#259,38.100000000000009);
#261=EDGE_CURVE('',#255,#255,#260,.T.);
#262=ORIENTED_EDGE('',*,*,#261,.T.);
#263=EDGE_LOOP('',(#262));
#264=FACE_BOUND('',#263,.T.);
#265=ADVANCED_FACE('',(#253,#264),#249,.T.);
#266=CARTESIAN_POINT('',(41.000000000000007,0.0,0.0));
#267=DIRECTION('',(-1.0,0.0,0.0));
#268=DIRECTION('',(0.0,0.0,1.0));
#269=AXIS2_PLACEMENT_3D('',#266,#267,#268);
#270=PLANE('',#269);
#271=ORIENTED_EDGE('',*,*,#261,.F.);
#272=EDGE_LOOP('',(#271));
#273=FACE_OUTER_BOUND('',#272,.T.);
#274=ORIENTED_EDGE('',*,*,#240,.T.);
#275=EDGE_LOOP('',(#274));
#276=FACE_BOUND('',#275,.T.);
#277=ADVANCED_FACE('',(#273,#276),#270,.F.);
#278=CARTESIAN_POINT('',(0.0,0.0,0.0));
#279=DIRECTION('',(0.0,0.0,1.0));
#280=DIRECTION('',(-1.0,0.0,0.0));
#281=AXIS2_PLACEMENT_3D('',#278,#279,#280);
#282=CYLINDRICAL_SURFACE('',#281,38.100000000000009);
#283=CARTESIAN_POINT('',(38.100000000000009,4.665904E-015,134.0));
#284=VERTEX_POINT('',#283);
#285=CARTESIAN_POINT('',(0.0,0.0,134.0));
#286=DIRECTION('',(0.0,0.0,-1.0));
#287=DIRECTION('',(-1.0,0.0,0.0));
#288=AXIS2_PLACEMENT_3D('',#285,#286,#287);
#289=CIRCLE('',#288,38.100000000000009);
#290=EDGE_CURVE('',#284,#284,#289,.T.);
#291=ORIENTED_EDGE('',*,*,#290,.T.);
#292=EDGE_LOOP('',(#291));
#293=FACE_OUTER_BOUND('',#292,.T.);
#294=ORIENTED_EDGE('',*,*,#135,.F.);
#295=ORIENTED_EDGE('',*,*,#203,.F.);
#296=EDGE_LOOP('',(#294,#295));
#297=FACE_BOUND('',#296,.T.);
#298=CARTESIAN_POINT('',(38.100000000000009,4.665904E-015,-134.0));
#299=VERTEX_POINT('',#298);
#300=CARTESIAN_POINT('',(0.0,0.0,-134.0));
#301=DIRECTION('',(0.0,0.0,1.0));
#302=DIRECTION('',(-1.0,0.0,0.0));
#303=AXIS2_PLACEMENT_3D('',#300,#301,#302);
#304=CIRCLE('',#303,38.100000000000009);
#305=EDGE_CURVE('',#299,#299,#304,.T.);
#306=ORIENTED_EDGE('',*,*,#305,.T.);
#307=EDGE_LOOP('',(#306));
#308=FACE_BOUND('',#307,.T.);
#309=ADVANCED_FACE('',(#293,#297,#308),#282,.T.);
#310=CARTESIAN_POINT('',(0.0,0.0,0.0));
#311=DIRECTION('',(0.0,0.0,1.0));
#312=DIRECTION('',(-1.0,0.0,0.0));
#313=AXIS2_PLACEMENT_3D('',#310,#311,#312);
#314=CYLINDRICAL_SURFACE('',#313,36.450000000000003);
#315=CARTESIAN_POINT('',(36.450000000000003,4.463838E-015,-134.0));
#316=VERTEX_POINT('',#315);
#317=CARTESIAN_POINT('',(0.0,0.0,-134.0));
#318=DIRECTION('',(0.0,0.0,1.0));
#319=DIRECTION('',(-1.0,0.0,0.0));
#320=AXIS2_PLACEMENT_3D('',#317,#318,#319);
#321=CIRCLE('',#320,36.450000000000003);
#322=EDGE_CURVE('',#316,#316,#321,.T.);
#323=ORIENTED_EDGE('',*,*,#322,.F.);
#324=EDGE_LOOP('',(#323));
#325=FACE_OUTER_BOUND('',#324,.T.);
#326=ORIENTED_EDGE('',*,*,#222,.T.);
#327=ORIENTED_EDGE('',*,*,#229,.T.);
#328=EDGE_LOOP('',(#326,#327));
#329=FACE_BOUND('',#328,.T.);
#330=CARTESIAN_POINT('',(36.450000000000003,4.463838E-015,134.0));
#331=VERTEX_POINT('',#330);
#332=CARTESIAN_POINT('',(0.0,0.0,134.0));
#333=DIRECTION('',(0.0,0.0,-1.0));
#334=DIRECTION('',(-1.0,0.0,0.0));
#335=AXIS2_PLACEMENT_3D('',#332,#333,#334);
#336=CIRCLE('',#335,36.450000000000003);
#337=EDGE_CURVE('',#331,#331,#336,.T.);
#338=ORIENTED_EDGE('',*,*,#337,.F.);
#339=EDGE_LOOP('',(#338));
#340=FACE_BOUND('',#339,.T.);
#341=ADVANCED_FACE('',(#325,#329,#340),#314,.F.);
#342=CARTESIAN_POINT('',(0.0,0.0,-134.0));
#343=DIRECTION('',(0.0,0.0,-1.0));
#344=DIRECTION('',(-1.0,0.0,0.0));
#345=AXIS2_PLACEMENT_3D('',#342,#343,#344);
#346=PLANE('',#345);
#347=ORIENTED_EDGE('',*,*,#305,.F.);
#348=EDGE_LOOP('',(#347));
#349=FACE_OUTER_BOUND('',#348,.T.);
#350=ORIENTED_EDGE('',*,*,#322,.T.);
#351=EDGE_LOOP('',(#350));
#352=FACE_BOUND('',#351,.T.);
#353=ADVANCED_FACE('',(#349,#352),#346,.T.);
#354=CARTESIAN_POINT('',(0.0,0.0,134.0));
#355=DIRECTION('',(0.0,0.0,-1.0));
#356=DIRECTION('',(-1.0,0.0,0.0));
#357=AXIS2_PLACEMENT_3D('',#354,#355,#356);
#358=PLANE('',#357);
#359=ORIENTED_EDGE('',*,*,#290,.F.);
#360=EDGE_LOOP('',(#359));
#361=FACE_OUTER_BOUND('',#360,.T.);
#362=ORIENTED_EDGE('',*,*,#337,.T.);
#363=EDGE_LOOP('',(#362));
#364=FACE_BOUND('',#363,.T.);
#365=ADVANCED_FACE('',(#361,#364),#358,.F.);
#366=CLOSED_SHELL('',(#139,#207,#244,#265,#277,#309,#341,#353,#365));
#367=MANIFOLD_SOLID_BREP('Solid1',#366);
#368=COLOUR_RGB('Metal-Steel',0.639216005802155,0.639216005802155,0.686275005340576);
#369=FILL_AREA_STYLE_COLOUR('Metal-Steel',#368);
#370=FILL_AREA_STYLE('Metal-Steel',(#369));
#371=SURFACE_STYLE_FILL_AREA(#370);
#372=SURFACE_SIDE_STYLE('Metal-Steel',(#371));
#373=SURFACE_STYLE_USAGE(.BOTH.,#372);
#374=PRESENTATION_STYLE_ASSIGNMENT((#373));
#375=STYLED_ITEM('',(#374),#367);
#376=MECHANICAL_DESIGN_GEOMETRIC_PRESENTATION_REPRESENTATION('',(#375),#36);
#377=ADVANCED_BREP_SHAPE_REPRESENTATION('ABSR',(#367),#36);
#378=SHAPE_REPRESENTATION_RELATIONSHIP('SRR','None',#377,#41);
ENDSEC;
END-ISO-10303-21;
