ISO-10303-21;
HEADER;
/****************************************************************
 * Generated by software with PDE/Lib inside                    *
 * PDElib Version v51a, created Thu 12/14/2006                  *
 * International Technegroup Inc. (www.iti-oh.com)              *
 ****************************************************************/
FILE_DESCRIPTION((''),'2;1');
FILE_NAME('T:\\Arbeitspl\S\dtze\\Aushilfe\\KPeters\\3D\\Steps 08_10\\11300\\11300200x.stp','2010-08-03T10:49:14',('thilbrands'),(''),'Autodesk Inventor 2008','Autodesk Inventor 2008','');
FILE_SCHEMA(('AUTOMOTIVE_DESIGN { 1 0 10303 214 1 1 1 1 }'));
ENDSEC;
DATA;
#5=APPLICATION_CONTEXT('automotive design');
#6=APPLICATION_PROTOCOL_DEFINITION('International Standard','automotive_design',2001,#5);
#7=PRODUCT_CONTEXT('',#5,'mechanical');
#8=PRODUCT('113002001','113002001',$,(#7));
#9=PRODUCT_RELATED_PRODUCT_CATEGORY('part',$,(#8));
#10=PRODUCT_DEFINITION_FORMATION('',$,#8);
#11=PRODUCT_DEFINITION_CONTEXT('part definition',#5,'design');
#12=PRODUCT_DEFINITION('',$,#10,#11);
#18=(NAMED_UNIT(*)PLANE_ANGLE_UNIT()SI_UNIT($,.RADIAN.));
#19=DIMENSIONAL_EXPONENTS(0.0,0.0,0.0,0.0,0.0,0.0,0.0);
#20=PLANE_ANGLE_MEASURE_WITH_UNIT(PLANE_ANGLE_MEASURE(0.017453292500000),#18);
#24=(CONVERSION_BASED_UNIT('DEGREE',#20)NAMED_UNIT(#19)PLANE_ANGLE_UNIT());
#28=(NAMED_UNIT(*)SI_UNIT($,.STERADIAN.)SOLID_ANGLE_UNIT());
#32=(LENGTH_UNIT()NAMED_UNIT(*)SI_UNIT(.MILLI.,.METRE.));
#34=UNCERTAINTY_MEASURE_WITH_UNIT(LENGTH_MEASURE(0.010000000000000),#32,'DISTANCE_ACCURACY_VALUE','');
#36=(GEOMETRIC_REPRESENTATION_CONTEXT(3)GLOBAL_UNCERTAINTY_ASSIGNED_CONTEXT((#34))GLOBAL_UNIT_ASSIGNED_CONTEXT((#24,#28,#32))REPRESENTATION_CONTEXT('None','None'));
#37=AXIS2_PLACEMENT_3D('',#38,#39,#40);
#38=CARTESIAN_POINT('',(0.0,0.0,0.0));
#39=DIRECTION('',(0.0,0.0,1.0));
#40=DIRECTION('',(1.0,0.0,0.0));
#41=SHAPE_REPRESENTATION('',(#37),#36);
#42=PRODUCT_DEFINITION_SHAPE('','',#12);
#43=SHAPE_DEFINITION_REPRESENTATION(#42,#41);
#49=(NAMED_UNIT(*)PLANE_ANGLE_UNIT()SI_UNIT($,.RADIAN.));
#50=DIMENSIONAL_EXPONENTS(0.0,0.0,0.0,0.0,0.0,0.0,0.0);
#51=PLANE_ANGLE_MEASURE_WITH_UNIT(PLANE_ANGLE_MEASURE(0.017453292500000),#49);
#55=(CONVERSION_BASED_UNIT('DEGREE',#51)NAMED_UNIT(#50)PLANE_ANGLE_UNIT());
#59=(NAMED_UNIT(*)SI_UNIT($,.STERADIAN.)SOLID_ANGLE_UNIT());
#63=(LENGTH_UNIT()NAMED_UNIT(*)SI_UNIT(.MILLI.,.METRE.));
#65=UNCERTAINTY_MEASURE_WITH_UNIT(LENGTH_MEASURE(0.000001000000000),#63,'DISTANCE_ACCURACY_VALUE','');
#67=(GEOMETRIC_REPRESENTATION_CONTEXT(3)GLOBAL_UNCERTAINTY_ASSIGNED_CONTEXT((#65))GLOBAL_UNIT_ASSIGNED_CONTEXT((#55,#59,#63))REPRESENTATION_CONTEXT('','3D'));
#68=CARTESIAN_POINT('',(0.999999999999979,0.0,0.0));
#69=DIRECTION('',(1.0,0.0,0.0));
#70=DIRECTION('',(0.0,-1.0,0.0));
#71=AXIS2_PLACEMENT_3D('',#68,#69,#70);
#72=CONICAL_SURFACE('',#71,119.0,44.999999999999915);
#73=CARTESIAN_POINT('',(-2.109424E-014,118.0,1.445035E-014));
#74=VERTEX_POINT('',#73);
#75=CARTESIAN_POINT('',(-2.109424E-014,0.0,0.0));
#76=DIRECTION('',(1.0,0.0,0.0));
#77=DIRECTION('',(0.0,-1.0,0.0));
#78=AXIS2_PLACEMENT_3D('',#75,#76,#77);
#79=CIRCLE('',#78,118.0);
#80=EDGE_CURVE('',#74,#74,#79,.T.);
#81=ORIENTED_EDGE('',*,*,#80,.T.);
#82=EDGE_LOOP('',(#81));
#83=FACE_OUTER_BOUND('',#82,.T.);
#84=CARTESIAN_POINT('',(1.999999999999977,120.0,-1.469528E-014));
#85=VERTEX_POINT('',#84);
#86=CARTESIAN_POINT('',(1.999999999999980,0.0,0.0));
#87=DIRECTION('',(-1.0,0.0,0.0));
#88=DIRECTION('',(0.0,-1.0,0.0));
#89=AXIS2_PLACEMENT_3D('',#86,#87,#88);
#90=CIRCLE('',#89,120.0);
#91=EDGE_CURVE('',#85,#85,#90,.T.);
#92=ORIENTED_EDGE('',*,*,#91,.T.);
#93=EDGE_LOOP('',(#92));
#94=FACE_BOUND('',#93,.T.);
#95=ADVANCED_FACE('',(#83,#94),#72,.T.);
#96=CARTESIAN_POINT('',(13.999999999999979,0.0,0.0));
#97=DIRECTION('',(1.0,0.0,0.0));
#98=DIRECTION('',(0.0,1.0,0.0));
#99=AXIS2_PLACEMENT_3D('',#96,#97,#98);
#100=CYLINDRICAL_SURFACE('',#99,120.0);
#101=CARTESIAN_POINT('',(27.999999999999979,120.0,0.0));
#102=VERTEX_POINT('',#101);
#103=CARTESIAN_POINT('',(27.999999999999979,0.0,0.0));
#104=DIRECTION('',(1.0,0.0,0.0));
#105=DIRECTION('',(0.0,1.0,0.0));
#106=AXIS2_PLACEMENT_3D('',#103,#104,#105);
#107=CIRCLE('',#106,120.0);
#108=EDGE_CURVE('',#102,#102,#107,.T.);
#109=ORIENTED_EDGE('',*,*,#108,.F.);
#110=EDGE_LOOP('',(#109));
#111=FACE_OUTER_BOUND('',#110,.T.);
#112=ORIENTED_EDGE('',*,*,#91,.F.);
#113=EDGE_LOOP('',(#112));
#114=FACE_BOUND('',#113,.T.);
#115=ADVANCED_FACE('',(#111,#114),#100,.T.);
#116=CARTESIAN_POINT('',(-2.095546E-014,115.959618943233410,0.0));
#117=DIRECTION('',(-1.0,0.0,0.0));
#118=DIRECTION('',(0.0,0.0,1.0));
#119=AXIS2_PLACEMENT_3D('',#116,#117,#118);
#120=PLANE('',#119);
#121=ORIENTED_EDGE('',*,*,#80,.F.);
#122=EDGE_LOOP('',(#121));
#123=FACE_OUTER_BOUND('',#122,.T.);
#124=CARTESIAN_POINT('',(-1.970646E-014,111.919237886466850,0.0));
#125=VERTEX_POINT('',#124);
#126=CARTESIAN_POINT('',(-1.970646E-014,0.0,0.0));
#127=DIRECTION('',(1.0,0.0,0.0));
#128=DIRECTION('',(0.0,1.0,0.0));
#129=AXIS2_PLACEMENT_3D('',#126,#127,#128);
#130=CIRCLE('',#129,111.919237886466850);
#131=EDGE_CURVE('',#125,#125,#130,.T.);
#132=ORIENTED_EDGE('',*,*,#131,.T.);
#133=EDGE_LOOP('',(#132));
#134=FACE_BOUND('',#133,.T.);
#135=ADVANCED_FACE('',(#123,#134),#120,.T.);
#136=CARTESIAN_POINT('',(28.825936815194801,0.0,0.0));
#137=DIRECTION('',(-1.0,0.0,0.0));
#138=DIRECTION('',(0.0,1.0,0.0));
#139=AXIS2_PLACEMENT_3D('',#136,#137,#138);
#140=CONICAL_SURFACE('',#139,115.315879555832650,80.000000000000028);
#141=CARTESIAN_POINT('',(29.651873630389616,110.631759111665330,0.0));
#142=VERTEX_POINT('',#141);
#143=CARTESIAN_POINT('',(29.651873630389616,0.0,0.0));
#144=DIRECTION('',(1.0,0.0,0.0));
#145=DIRECTION('',(0.0,1.0,0.0));
#146=AXIS2_PLACEMENT_3D('',#143,#144,#145);
#147=CIRCLE('',#146,110.631759111665330);
#148=EDGE_CURVE('',#142,#142,#147,.T.);
#149=ORIENTED_EDGE('',*,*,#148,.F.);
#150=EDGE_LOOP('',(#149));
#151=FACE_OUTER_BOUND('',#150,.T.);
#152=ORIENTED_EDGE('',*,*,#108,.T.);
#153=EDGE_LOOP('',(#152));
#154=FACE_BOUND('',#153,.T.);
#155=ADVANCED_FACE('',(#151,#154),#140,.T.);
#156=CARTESIAN_POINT('',(34.575912395450665,-1.304206E-014,106.499999999999990));
#157=CARTESIAN_POINT('',(29.575912395450665,-1.304206E-014,106.499999999999990));
#158=CARTESIAN_POINT('',(29.575912395450665,-1.365436E-014,111.499999999999990));
#159=CARTESIAN_POINT('',(29.575912395450665,-1.426666E-014,116.499999999999990));
#160=CARTESIAN_POINT('',(34.575912395450665,-1.426666E-014,116.499999999999990));
#161=CARTESIAN_POINT('',(34.575912395450665,-106.499999999999970,106.499999999999940));
#162=CARTESIAN_POINT('',(29.575912395450665,-106.499999999999970,106.499999999999940));
#163=CARTESIAN_POINT('',(29.575912395450665,-111.499999999999970,111.499999999999940));
#164=CARTESIAN_POINT('',(29.575912395450665,-116.499999999999970,116.499999999999940));
#165=CARTESIAN_POINT('',(34.575912395450665,-116.499999999999970,116.499999999999940));
#166=CARTESIAN_POINT('',(34.575912395450665,-106.499999999999990,-1.304206E-014));
#167=CARTESIAN_POINT('',(29.575912395450665,-106.499999999999990,-1.304206E-014));
#168=CARTESIAN_POINT('',(29.575912395450665,-111.499999999999990,-1.365436E-014));
#169=CARTESIAN_POINT('',(29.575912395450665,-116.499999999999990,-1.426666E-014));
#170=CARTESIAN_POINT('',(34.575912395450665,-116.499999999999990,-1.426666E-014));
#171=CARTESIAN_POINT('',(34.575912395450665,-106.499999999999940,-106.499999999999970));
#172=CARTESIAN_POINT('',(29.575912395450665,-106.499999999999940,-106.499999999999970));
#173=CARTESIAN_POINT('',(29.575912395450665,-111.499999999999940,-111.499999999999970));
#174=CARTESIAN_POINT('',(29.575912395450665,-116.499999999999940,-116.499999999999970));
#175=CARTESIAN_POINT('',(34.575912395450665,-116.499999999999940,-116.499999999999970));
#176=CARTESIAN_POINT('',(34.575912395450665,1.304206E-014,-106.499999999999990));
#177=CARTESIAN_POINT('',(29.575912395450665,1.304206E-014,-106.499999999999990));
#178=CARTESIAN_POINT('',(29.575912395450665,1.365436E-014,-111.499999999999990));
#179=CARTESIAN_POINT('',(29.575912395450665,1.426666E-014,-116.499999999999990));
#180=CARTESIAN_POINT('',(34.575912395450665,1.426666E-014,-116.499999999999990));
#181=CARTESIAN_POINT('',(34.575912395450665,106.499999999999970,-106.499999999999940));
#182=CARTESIAN_POINT('',(29.575912395450665,106.499999999999970,-106.499999999999940));
#183=CARTESIAN_POINT('',(29.575912395450665,111.499999999999970,-111.499999999999940));
#184=CARTESIAN_POINT('',(29.575912395450665,116.499999999999970,-116.499999999999940));
#185=CARTESIAN_POINT('',(34.575912395450665,116.499999999999970,-116.499999999999940));
#186=CARTESIAN_POINT('',(34.575912395450665,106.499999999999990,1.304206E-014));
#187=CARTESIAN_POINT('',(29.575912395450665,106.499999999999990,1.304206E-014));
#188=CARTESIAN_POINT('',(29.575912395450665,111.499999999999990,1.365436E-014));
#189=CARTESIAN_POINT('',(29.575912395450665,116.499999999999990,1.426666E-014));
#190=CARTESIAN_POINT('',(34.575912395450665,116.499999999999990,1.426666E-014));
#191=CARTESIAN_POINT('',(34.575912395450665,106.499999999999940,106.499999999999970));
#192=CARTESIAN_POINT('',(29.575912395450665,106.499999999999940,106.499999999999970));
#193=CARTESIAN_POINT('',(29.575912395450665,111.499999999999940,111.499999999999970));
#194=CARTESIAN_POINT('',(29.575912395450665,116.499999999999940,116.499999999999970));
#195=CARTESIAN_POINT('',(34.575912395450665,116.499999999999940,116.499999999999970));
#196=CARTESIAN_POINT('',(34.575912395450665,-1.304206E-014,106.499999999999990));
#197=CARTESIAN_POINT('',(29.575912395450665,-1.304206E-014,106.499999999999990));
#198=CARTESIAN_POINT('',(29.575912395450665,-1.365436E-014,111.499999999999990));
#199=CARTESIAN_POINT('',(29.575912395450665,-1.426666E-014,116.499999999999990));
#200=CARTESIAN_POINT('',(34.575912395450665,-1.426666E-014,116.499999999999990));
#208=(BOUNDED_SURFACE()B_SPLINE_SURFACE(2,2,((#156,#161,#166,#171,#176,#181,#186,#191,#196),(#157,#162,#167,#172,#177,#182,#187,#192,#197),(#158,#163,#168,#173,#178,#183,#188,#193,#198),(#159,#164,#169,#174,#179,#184,#189,#194,#199),(#160,#165,#170,#175,#180,#185,#190,#195,#200)),.UNSPECIFIED.,.F.,.T.,.U.)B_SPLINE_SURFACE_WITH_KNOTS((3,2,3),(3,2,2,2,3),(-3.141592653589793,-1.570796326794897,0.0),(0.0,1.570796326794897,3.141592653589793,4.712388980384690,6.283185307179586),.UNSPECIFIED.)GEOMETRIC_REPRESENTATION_ITEM()RATIONAL_B_SPLINE_SURFACE(((1.0,0.707106781186548,1.0,0.707106781186548,1.0,0.707106781186548,1.0,0.707106781186548,1.0),(0.707106781186548,0.500000000000000,0.707106781186548,0.500000000000000,0.707106781186548,0.500000000000000,0.707106781186548,0.500000000000000,0.707106781186548),(1.0,0.707106781186548,1.0,0.707106781186548,1.0,0.707106781186548,1.0,0.707106781186548,1.0),(0.707106781186548,0.500000000000000,0.707106781186548,0.500000000000000,0.707106781186548,0.500000000000000,0.707106781186548,0.500000000000000,0.707106781186548),(1.0,0.707106781186548,1.0,0.707106781186548,1.0,0.707106781186548,1.0,0.707106781186548,1.0)))REPRESENTATION_ITEM('')SURFACE());
#209=CARTESIAN_POINT('',(34.575912395450665,106.499999999999990,0.0));
#210=VERTEX_POINT('',#209);
#211=CARTESIAN_POINT('',(34.575912395450665,0.0,0.0));
#212=DIRECTION('',(1.0,0.0,0.0));
#213=DIRECTION('',(0.0,1.0,0.0));
#214=AXIS2_PLACEMENT_3D('',#211,#212,#213);
#215=CIRCLE('',#214,106.499999999999990);
#216=EDGE_CURVE('',#210,#210,#215,.T.);
#217=ORIENTED_EDGE('',*,*,#216,.F.);
#218=EDGE_LOOP('',(#217));
#219=FACE_OUTER_BOUND('',#218,.T.);
#220=ORIENTED_EDGE('',*,*,#148,.T.);
#221=EDGE_LOOP('',(#220));
#222=FACE_BOUND('',#221,.T.);
#223=ADVANCED_FACE('',(#219,#222),#208,.T.);
#224=CARTESIAN_POINT('',(40.988918092048664,0.0,0.0));
#225=DIRECTION('',(1.0,0.0,0.0));
#226=DIRECTION('',(0.0,1.0,0.0));
#227=AXIS2_PLACEMENT_3D('',#224,#225,#226);
#228=CYLINDRICAL_SURFACE('',#227,106.499999999999990);
#229=CARTESIAN_POINT('',(47.401923788646684,106.500000000000000,0.0));
#230=VERTEX_POINT('',#229);
#231=CARTESIAN_POINT('',(47.401923788646684,0.0,0.0));
#232=DIRECTION('',(1.0,0.0,0.0));
#233=DIRECTION('',(0.0,1.0,0.0));
#234=AXIS2_PLACEMENT_3D('',#231,#232,#233);
#235=CIRCLE('',#234,106.500000000000000);
#236=EDGE_CURVE('',#230,#230,#235,.T.);
#237=ORIENTED_EDGE('',*,*,#236,.F.);
#238=EDGE_LOOP('',(#237));
#239=FACE_OUTER_BOUND('',#238,.T.);
#240=ORIENTED_EDGE('',*,*,#216,.T.);
#241=EDGE_LOOP('',(#240));
#242=FACE_BOUND('',#241,.T.);
#243=ADVANCED_FACE('',(#239,#242),#228,.T.);
#244=CARTESIAN_POINT('',(48.700961894323328,0.0,0.0));
#245=DIRECTION('',(-1.0,0.0,0.0));
#246=DIRECTION('',(0.0,1.0,0.0));
#247=AXIS2_PLACEMENT_3D('',#244,#245,#246);
#248=CONICAL_SURFACE('',#247,104.250000000000000,60.000000000000007);
#249=CARTESIAN_POINT('',(49.999999999999986,102.000000000000030,0.0));
#250=VERTEX_POINT('',#249);
#251=CARTESIAN_POINT('',(49.999999999999986,0.0,0.0));
#252=DIRECTION('',(1.0,0.0,0.0));
#253=DIRECTION('',(0.0,1.0,0.0));
#254=AXIS2_PLACEMENT_3D('',#251,#252,#253);
#255=CIRCLE('',#254,102.000000000000030);
#256=EDGE_CURVE('',#250,#250,#255,.T.);
#257=ORIENTED_EDGE('',*,*,#256,.F.);
#258=EDGE_LOOP('',(#257));
#259=FACE_OUTER_BOUND('',#258,.T.);
#260=ORIENTED_EDGE('',*,*,#236,.T.);
#261=EDGE_LOOP('',(#260));
#262=FACE_BOUND('',#261,.T.);
#263=ADVANCED_FACE('',(#259,#262),#248,.T.);
#264=CARTESIAN_POINT('',(49.999999999999972,101.000000000000010,0.0));
#265=DIRECTION('',(1.0,0.0,0.0));
#266=DIRECTION('',(0.0,0.0,-1.0));
#267=AXIS2_PLACEMENT_3D('',#264,#265,#266);
#268=PLANE('',#267);
#269=ORIENTED_EDGE('',*,*,#256,.T.);
#270=EDGE_LOOP('',(#269));
#271=FACE_OUTER_BOUND('',#270,.T.);
#272=CARTESIAN_POINT('',(49.999999999999964,100.000000000000010,0.0));
#273=VERTEX_POINT('',#272);
#274=CARTESIAN_POINT('',(49.999999999999964,0.0,0.0));
#275=DIRECTION('',(1.0,0.0,0.0));
#276=DIRECTION('',(0.0,1.0,0.0));
#277=AXIS2_PLACEMENT_3D('',#274,#275,#276);
#278=CIRCLE('',#277,100.000000000000010);
#279=EDGE_CURVE('',#273,#273,#278,.T.);
#280=ORIENTED_EDGE('',*,*,#279,.F.);
#281=EDGE_LOOP('',(#280));
#282=FACE_BOUND('',#281,.T.);
#283=ADVANCED_FACE('',(#271,#282),#268,.T.);
#284=CARTESIAN_POINT('',(32.499999999999972,0.0,0.0));
#285=DIRECTION('',(1.0,0.0,0.0));
#286=DIRECTION('',(0.0,1.0,0.0));
#287=AXIS2_PLACEMENT_3D('',#284,#285,#286);
#288=CYLINDRICAL_SURFACE('',#287,100.0);
#289=CARTESIAN_POINT('',(14.999999999999984,100.0,0.0));
#290=VERTEX_POINT('',#289);
#291=CARTESIAN_POINT('',(14.999999999999984,0.0,0.0));
#292=DIRECTION('',(1.0,0.0,0.0));
#293=DIRECTION('',(0.0,1.0,0.0));
#294=AXIS2_PLACEMENT_3D('',#291,#292,#293);
#295=CIRCLE('',#294,100.0);
#296=EDGE_CURVE('',#290,#290,#295,.T.);
#297=ORIENTED_EDGE('',*,*,#296,.F.);
#298=EDGE_LOOP('',(#297));
#299=FACE_OUTER_BOUND('',#298,.T.);
#300=ORIENTED_EDGE('',*,*,#279,.T.);
#301=EDGE_LOOP('',(#300));
#302=FACE_BOUND('',#301,.T.);
#303=ADVANCED_FACE('',(#299,#302),#288,.F.);
#304=CARTESIAN_POINT('',(14.999999999999986,101.000000000000010,0.0));
#305=DIRECTION('',(-1.0,0.0,0.0));
#306=DIRECTION('',(0.0,0.0,1.0));
#307=AXIS2_PLACEMENT_3D('',#304,#305,#306);
#308=PLANE('',#307);
#309=CARTESIAN_POINT('',(14.999999999999986,102.000000000000010,0.0));
#310=VERTEX_POINT('',#309);
#311=CARTESIAN_POINT('',(14.999999999999986,0.0,0.0));
#312=DIRECTION('',(1.0,0.0,0.0));
#313=DIRECTION('',(0.0,1.0,0.0));
#314=AXIS2_PLACEMENT_3D('',#311,#312,#313);
#315=CIRCLE('',#314,102.000000000000010);
#316=EDGE_CURVE('',#310,#310,#315,.T.);
#317=ORIENTED_EDGE('',*,*,#316,.F.);
#318=EDGE_LOOP('',(#317));
#319=FACE_OUTER_BOUND('',#318,.T.);
#320=ORIENTED_EDGE('',*,*,#296,.T.);
#321=EDGE_LOOP('',(#320));
#322=FACE_BOUND('',#321,.T.);
#323=ADVANCED_FACE('',(#319,#322),#308,.T.);
#324=CARTESIAN_POINT('',(17.249999999999986,0.0,0.0));
#325=DIRECTION('',(1.0,0.0,0.0));
#326=DIRECTION('',(0.0,1.0,0.0));
#327=AXIS2_PLACEMENT_3D('',#324,#325,#326);
#328=CYLINDRICAL_SURFACE('',#327,102.000000000000010);
#329=CARTESIAN_POINT('',(19.499999999999986,102.000000000000010,0.0));
#330=VERTEX_POINT('',#329);
#331=CARTESIAN_POINT('',(19.499999999999986,0.0,0.0));
#332=DIRECTION('',(1.0,0.0,0.0));
#333=DIRECTION('',(0.0,1.0,0.0));
#334=AXIS2_PLACEMENT_3D('',#331,#332,#333);
#335=CIRCLE('',#334,102.000000000000010);
#336=EDGE_CURVE('',#330,#330,#335,.T.);
#337=ORIENTED_EDGE('',*,*,#336,.F.);
#338=EDGE_LOOP('',(#337));
#339=FACE_OUTER_BOUND('',#338,.T.);
#340=ORIENTED_EDGE('',*,*,#316,.T.);
#341=EDGE_LOOP('',(#340));
#342=FACE_BOUND('',#341,.T.);
#343=ADVANCED_FACE('',(#339,#342),#328,.T.);
#344=CARTESIAN_POINT('',(19.499999999999986,104.950000000000020,0.0));
#345=DIRECTION('',(-1.0,0.0,0.0));
#346=DIRECTION('',(0.0,0.0,1.0));
#347=AXIS2_PLACEMENT_3D('',#344,#345,#346);
#348=PLANE('',#347);
#349=CARTESIAN_POINT('',(19.499999999999986,107.900000000000010,0.0));
#350=VERTEX_POINT('',#349);
#351=CARTESIAN_POINT('',(19.499999999999986,0.0,0.0));
#352=DIRECTION('',(1.0,0.0,0.0));
#353=DIRECTION('',(0.0,1.0,0.0));
#354=AXIS2_PLACEMENT_3D('',#351,#352,#353);
#355=CIRCLE('',#354,107.900000000000010);
#356=EDGE_CURVE('',#350,#350,#355,.T.);
#357=ORIENTED_EDGE('',*,*,#356,.F.);
#358=EDGE_LOOP('',(#357));
#359=FACE_OUTER_BOUND('',#358,.T.);
#360=ORIENTED_EDGE('',*,*,#336,.T.);
#361=EDGE_LOOP('',(#360));
#362=FACE_BOUND('',#361,.T.);
#363=ADVANCED_FACE('',(#359,#362),#348,.T.);
#364=CARTESIAN_POINT('',(17.249999999999982,0.0,0.0));
#365=DIRECTION('',(1.0,0.0,0.0));
#366=DIRECTION('',(0.0,1.0,0.0));
#367=AXIS2_PLACEMENT_3D('',#364,#365,#366);
#368=CYLINDRICAL_SURFACE('',#367,107.900000000000010);
#369=CARTESIAN_POINT('',(14.999999999999982,107.900000000000010,0.0));
#370=VERTEX_POINT('',#369);
#371=CARTESIAN_POINT('',(14.999999999999982,0.0,0.0));
#372=DIRECTION('',(1.0,0.0,0.0));
#373=DIRECTION('',(0.0,1.0,0.0));
#374=AXIS2_PLACEMENT_3D('',#371,#372,#373);
#375=CIRCLE('',#374,107.900000000000010);
#376=EDGE_CURVE('',#370,#370,#375,.T.);
#377=ORIENTED_EDGE('',*,*,#376,.F.);
#378=EDGE_LOOP('',(#377));
#379=FACE_OUTER_BOUND('',#378,.T.);
#380=ORIENTED_EDGE('',*,*,#356,.T.);
#381=EDGE_LOOP('',(#380));
#382=FACE_BOUND('',#381,.T.);
#383=ADVANCED_FACE('',(#379,#382),#368,.F.);
#384=CARTESIAN_POINT('',(7.499999999999981,0.0,0.0));
#385=DIRECTION('',(-1.0,0.0,0.0));
#386=DIRECTION('',(0.0,1.0,0.0));
#387=AXIS2_PLACEMENT_3D('',#384,#385,#386);
#388=CONICAL_SURFACE('',#387,109.909618943233430,14.999999999999995);
#389=ORIENTED_EDGE('',*,*,#131,.F.);
#390=EDGE_LOOP('',(#389));
#391=FACE_OUTER_BOUND('',#390,.T.);
#392=ORIENTED_EDGE('',*,*,#376,.T.);
#393=EDGE_LOOP('',(#392));
#394=FACE_BOUND('',#393,.T.);
#395=ADVANCED_FACE('',(#391,#394),#388,.F.);
#396=CLOSED_SHELL('',(#95,#115,#135,#155,#223,#243,#263,#283,#303,#323,#343,#363,#383,#395));
#397=MANIFOLD_SOLID_BREP('',#396);
#398=COLOUR_RGB('Metall - Stahl',0.639216005802155,0.639216005802155,0.686275005340576);
#399=FILL_AREA_STYLE_COLOUR('Metall - Stahl',#398);
#400=FILL_AREA_STYLE('Metall - Stahl',(#399));
#401=SURFACE_STYLE_FILL_AREA(#400);
#402=SURFACE_SIDE_STYLE('Metall - Stahl',(#401));
#403=SURFACE_STYLE_USAGE(.BOTH.,#402);
#404=PRESENTATION_STYLE_ASSIGNMENT((#403));
#405=STYLED_ITEM('',(#404),#397);
#406=MECHANICAL_DESIGN_GEOMETRIC_PRESENTATION_REPRESENTATION('',(#405),#36);
#407=ADVANCED_BREP_SHAPE_REPRESENTATION('ABSR',(#397),#36);
#408=SHAPE_REPRESENTATION_RELATIONSHIP('SRR','None',#407,#41);
ENDSEC;
END-ISO-10303-21;
