ISO-10303-21;
HEADER;
FILE_DESCRIPTION( ( 'STEP AP214' ), '1' );
FILE_NAME( 'C:/Users/ilukic/Documents/ex/versorgungssysteme/mapress_edelstahl/Geberit Mapress Stainless Steel flange PN 10_16, with plain end/33745.stp', '2020-03-26T18:46:50', ( '' ), ( '' ), ' ', 'PARTsolutions', ' ' );
FILE_SCHEMA( ( 'AUTOMOTIVE_DESIGN { 1 0 10303 214 1 1 1 1 }' ) );
ENDSEC;
DATA;
#1 = MECHANICAL_DESIGN_GEOMETRIC_PRESENTATION_REPRESENTATION( ' ', ( #10, #11, #12, #13, #14, #15, #16, #17, #18, #19, #20, #21, #22, #23 ), #6 );
#2 = PRODUCT_DEFINITION_CONTEXT( '', #24, 'design' );
#3 = APPLICATION_PROTOCOL_DEFINITION( 'international standard', 'automotive_design', 2001, #24 );
#4 = PRODUCT_CATEGORY_RELATIONSHIP( 'NONE', 'NONE', #25, #26 );
#5 = SHAPE_DEFINITION_REPRESENTATION( #27, #28 );
#6 =  ( GEOMETRIC_REPRESENTATION_CONTEXT( 3 )GLOBAL_UNCERTAINTY_ASSIGNED_CONTEXT( ( #31 ) )GLOBAL_UNIT_ASSIGNED_CONTEXT( ( #33, #34, #35 ) )REPRESENTATION_CONTEXT( 'NONE', 'WORKSPACE' ) );
#10 = STYLED_ITEM( '', ( #37 ), #38 );
#11 = STYLED_ITEM( '', ( #39 ), #40 );
#12 = STYLED_ITEM( '', ( #41 ), #42 );
#13 = STYLED_ITEM( '', ( #43 ), #44 );
#14 = STYLED_ITEM( '', ( #45 ), #46 );
#15 = STYLED_ITEM( '', ( #47 ), #48 );
#16 = STYLED_ITEM( '', ( #49 ), #50 );
#17 = STYLED_ITEM( '', ( #51 ), #52 );
#18 = STYLED_ITEM( '', ( #53 ), #54 );
#19 = STYLED_ITEM( '', ( #55 ), #56 );
#20 = STYLED_ITEM( '', ( #57 ), #58 );
#21 = STYLED_ITEM( '', ( #59 ), #60 );
#22 = STYLED_ITEM( '', ( #61 ), #62 );
#23 = STYLED_ITEM( '', ( #63 ), #64 );
#24 = APPLICATION_CONTEXT( 'core data for automotive mechanical design processes' );
#25 = PRODUCT_CATEGORY( 'part', 'NONE' );
#26 = PRODUCT_RELATED_PRODUCT_CATEGORY( 'detail', ' ', ( #65 ) );
#27 = PRODUCT_DEFINITION_SHAPE( 'NONE', 'NONE', #66 );
#28 = ADVANCED_BREP_SHAPE_REPRESENTATION( '_33745', ( #67, #68 ), #6 );
#31 = UNCERTAINTY_MEASURE_WITH_UNIT( LENGTH_MEASURE( 0.00100000000000000 ), #33, '', '' );
#33 =  ( CONVERSION_BASED_UNIT( 'MILLIMETRE', #71 )LENGTH_UNIT(  )NAMED_UNIT( #74 ) );
#34 =  ( NAMED_UNIT( #76 )PLANE_ANGLE_UNIT(  )SI_UNIT( $, .RADIAN. ) );
#35 =  ( NAMED_UNIT( #76 )SI_UNIT( $, .STERADIAN. )SOLID_ANGLE_UNIT(  ) );
#37 = PRESENTATION_STYLE_ASSIGNMENT( ( #82 ) );
#38 = ADVANCED_FACE( '', ( #83, #84, #85, #86, #87, #88 ), #89, .T. );
#39 = PRESENTATION_STYLE_ASSIGNMENT( ( #90 ) );
#40 = ADVANCED_FACE( '', ( #91, #92, #93, #94, #95, #96 ), #97, .T. );
#41 = PRESENTATION_STYLE_ASSIGNMENT( ( #98 ) );
#42 = ADVANCED_FACE( '', ( #99, #100 ), #101, .F. );
#43 = PRESENTATION_STYLE_ASSIGNMENT( ( #102 ) );
#44 = ADVANCED_FACE( '', ( #103, #104 ), #105, .F. );
#45 = PRESENTATION_STYLE_ASSIGNMENT( ( #106 ) );
#46 = ADVANCED_FACE( '', ( #107, #108 ), #109, .T. );
#47 = PRESENTATION_STYLE_ASSIGNMENT( ( #110 ) );
#48 = ADVANCED_FACE( '', ( #111, #112 ), #113, .T. );
#49 = PRESENTATION_STYLE_ASSIGNMENT( ( #114 ) );
#50 = ADVANCED_FACE( '', ( #115, #116 ), #117, .T. );
#51 = PRESENTATION_STYLE_ASSIGNMENT( ( #118 ) );
#52 = ADVANCED_FACE( '', ( #119, #120 ), #121, .T. );
#53 = PRESENTATION_STYLE_ASSIGNMENT( ( #122 ) );
#54 = ADVANCED_FACE( '', ( #123, #124 ), #125, .F. );
#55 = PRESENTATION_STYLE_ASSIGNMENT( ( #126 ) );
#56 = ADVANCED_FACE( '', ( #127, #128 ), #129, .F. );
#57 = PRESENTATION_STYLE_ASSIGNMENT( ( #130 ) );
#58 = ADVANCED_FACE( '', ( #131, #132 ), #133, .F. );
#59 = PRESENTATION_STYLE_ASSIGNMENT( ( #134 ) );
#60 = ADVANCED_FACE( '', ( #135, #136 ), #137, .F. );
#61 = PRESENTATION_STYLE_ASSIGNMENT( ( #138 ) );
#62 = ADVANCED_FACE( '', ( #139, #140 ), #141, .F. );
#63 = PRESENTATION_STYLE_ASSIGNMENT( ( #142 ) );
#64 = ADVANCED_FACE( '', ( #143, #144 ), #145, .F. );
#65 = PRODUCT( '_33745', '_33745', 'PART-_33745-DESC', ( #146 ) );
#66 = PRODUCT_DEFINITION( 'NONE', 'NONE', #147, #2 );
#67 = MANIFOLD_SOLID_BREP( '_33745', #148 );
#68 = AXIS2_PLACEMENT_3D( '', #149, #150, #151 );
#71 = LENGTH_MEASURE_WITH_UNIT( LENGTH_MEASURE( 1.00000000000000 ), #152 );
#74 = DIMENSIONAL_EXPONENTS( 1.00000000000000, 0.000000000000000, 0.000000000000000, 0.000000000000000, 0.000000000000000, 0.000000000000000, 0.000000000000000 );
#76 = DIMENSIONAL_EXPONENTS( 0.000000000000000, 0.000000000000000, 0.000000000000000, 0.000000000000000, 0.000000000000000, 0.000000000000000, 0.000000000000000 );
#82 = SURFACE_STYLE_USAGE( .BOTH., #153 );
#83 = FACE_OUTER_BOUND( '', #154, .T. );
#84 = FACE_BOUND( '', #155, .T. );
#85 = FACE_BOUND( '', #156, .T. );
#86 = FACE_BOUND( '', #157, .T. );
#87 = FACE_BOUND( '', #158, .T. );
#88 = FACE_BOUND( '', #159, .T. );
#89 = PLANE( '', #160 );
#90 = SURFACE_STYLE_USAGE( .BOTH., #161 );
#91 = FACE_BOUND( '', #162, .T. );
#92 = FACE_BOUND( '', #163, .T. );
#93 = FACE_BOUND( '', #164, .T. );
#94 = FACE_BOUND( '', #165, .T. );
#95 = FACE_BOUND( '', #166, .T. );
#96 = FACE_OUTER_BOUND( '', #167, .T. );
#97 = PLANE( '', #168 );
#98 = SURFACE_STYLE_USAGE( .BOTH., #169 );
#99 = FACE_BOUND( '', #170, .T. );
#100 = FACE_OUTER_BOUND( '', #171, .T. );
#101 = CONICAL_SURFACE( '', #172, 24.8157676650000, 1.30899693900000 );
#102 = SURFACE_STYLE_USAGE( .BOTH., #173 );
#103 = FACE_BOUND( '', #174, .T. );
#104 = FACE_OUTER_BOUND( '', #175, .T. );
#105 = PLANE( '', #176 );
#106 = SURFACE_STYLE_USAGE( .BOTH., #177 );
#107 = FACE_OUTER_BOUND( '', #178, .T. );
#108 = FACE_OUTER_BOUND( '', #179, .T. );
#109 = CYLINDRICAL_SURFACE( '', #180, 57.5000000000000 );
#110 = SURFACE_STYLE_USAGE( .BOTH., #181 );
#111 = FACE_OUTER_BOUND( '', #182, .T. );
#112 = FACE_OUTER_BOUND( '', #183, .T. );
#113 = CYLINDRICAL_SURFACE( '', #184, 14.0000000000000 );
#114 = SURFACE_STYLE_USAGE( .BOTH., #185 );
#115 = FACE_OUTER_BOUND( '', #186, .T. );
#116 = FACE_OUTER_BOUND( '', #187, .T. );
#117 = CYLINDRICAL_SURFACE( '', #188, 33.1666666667000 );
#118 = SURFACE_STYLE_USAGE( .BOTH., #189 );
#119 = FACE_OUTER_BOUND( '', #190, .T. );
#120 = FACE_BOUND( '', #191, .T. );
#121 = PLANE( '', #192 );
#122 = SURFACE_STYLE_USAGE( .BOTH., #193 );
#123 = FACE_OUTER_BOUND( '', #194, .T. );
#124 = FACE_OUTER_BOUND( '', #195, .T. );
#125 = CYLINDRICAL_SURFACE( '', #196, 7.00000000000000 );
#126 = SURFACE_STYLE_USAGE( .BOTH., #197 );
#127 = FACE_OUTER_BOUND( '', #198, .T. );
#128 = FACE_OUTER_BOUND( '', #199, .T. );
#129 = CYLINDRICAL_SURFACE( '', #200, 12.5000000000000 );
#130 = SURFACE_STYLE_USAGE( .BOTH., #201 );
#131 = FACE_OUTER_BOUND( '', #202, .T. );
#132 = FACE_OUTER_BOUND( '', #203, .T. );
#133 = CYLINDRICAL_SURFACE( '', #204, 7.00000000000000 );
#134 = SURFACE_STYLE_USAGE( .BOTH., #205 );
#135 = FACE_OUTER_BOUND( '', #206, .T. );
#136 = FACE_OUTER_BOUND( '', #207, .T. );
#137 = CYLINDRICAL_SURFACE( '', #208, 7.00000000000000 );
#138 = SURFACE_STYLE_USAGE( .BOTH., #209 );
#139 = FACE_OUTER_BOUND( '', #210, .T. );
#140 = FACE_BOUND( '', #211, .T. );
#141 = CONICAL_SURFACE( '', #212, 12.5000000000000, 0.191986217700000 );
#142 = SURFACE_STYLE_USAGE( .BOTH., #213 );
#143 = FACE_OUTER_BOUND( '', #214, .T. );
#144 = FACE_OUTER_BOUND( '', #215, .T. );
#145 = CYLINDRICAL_SURFACE( '', #216, 7.00000000000000 );
#146 = PRODUCT_CONTEXT( '', #24, 'mechanical' );
#147 = PRODUCT_DEFINITION_FORMATION_WITH_SPECIFIED_SOURCE( ' ', 'NONE', #65, .NOT_KNOWN. );
#148 = CLOSED_SHELL( '', ( #42, #46, #40, #56, #62, #44, #48, #38, #50, #52, #54, #64, #58, #60 ) );
#149 = CARTESIAN_POINT( '', ( 0.000000000000000, 0.000000000000000, 0.000000000000000 ) );
#150 = DIRECTION( '', ( 0.000000000000000, 0.000000000000000, 1.00000000000000 ) );
#151 = DIRECTION( '', ( 1.00000000000000, 0.000000000000000, 0.000000000000000 ) );
#152 =  ( LENGTH_UNIT(  )NAMED_UNIT( #74 )SI_UNIT( .MILLI., .METRE. ) );
#153 = SURFACE_SIDE_STYLE( '', ( #218 ) );
#154 = EDGE_LOOP( '', ( #219 ) );
#155 = EDGE_LOOP( '', ( #220 ) );
#156 = EDGE_LOOP( '', ( #221 ) );
#157 = EDGE_LOOP( '', ( #222 ) );
#158 = EDGE_LOOP( '', ( #223 ) );
#159 = EDGE_LOOP( '', ( #224 ) );
#160 = AXIS2_PLACEMENT_3D( '', #225, #226, #227 );
#161 = SURFACE_SIDE_STYLE( '', ( #228 ) );
#162 = EDGE_LOOP( '', ( #229 ) );
#163 = EDGE_LOOP( '', ( #230 ) );
#164 = EDGE_LOOP( '', ( #231 ) );
#165 = EDGE_LOOP( '', ( #232 ) );
#166 = EDGE_LOOP( '', ( #233 ) );
#167 = EDGE_LOOP( '', ( #234 ) );
#168 = AXIS2_PLACEMENT_3D( '', #235, #236, #237 );
#169 = SURFACE_SIDE_STYLE( '', ( #238 ) );
#170 = EDGE_LOOP( '', ( #239 ) );
#171 = EDGE_LOOP( '', ( #240 ) );
#172 = AXIS2_PLACEMENT_3D( '', #241, #242, #243 );
#173 = SURFACE_SIDE_STYLE( '', ( #244 ) );
#174 = EDGE_LOOP( '', ( #245 ) );
#175 = EDGE_LOOP( '', ( #246 ) );
#176 = AXIS2_PLACEMENT_3D( '', #247, #248, #249 );
#177 = SURFACE_SIDE_STYLE( '', ( #250 ) );
#178 = EDGE_LOOP( '', ( #251 ) );
#179 = EDGE_LOOP( '', ( #252 ) );
#180 = AXIS2_PLACEMENT_3D( '', #253, #254, #255 );
#181 = SURFACE_SIDE_STYLE( '', ( #256 ) );
#182 = EDGE_LOOP( '', ( #257 ) );
#183 = EDGE_LOOP( '', ( #258 ) );
#184 = AXIS2_PLACEMENT_3D( '', #259, #260, #261 );
#185 = SURFACE_SIDE_STYLE( '', ( #262 ) );
#186 = EDGE_LOOP( '', ( #263 ) );
#187 = EDGE_LOOP( '', ( #264 ) );
#188 = AXIS2_PLACEMENT_3D( '', #265, #266, #267 );
#189 = SURFACE_SIDE_STYLE( '', ( #268 ) );
#190 = EDGE_LOOP( '', ( #269 ) );
#191 = EDGE_LOOP( '', ( #270 ) );
#192 = AXIS2_PLACEMENT_3D( '', #271, #272, #273 );
#193 = SURFACE_SIDE_STYLE( '', ( #274 ) );
#194 = EDGE_LOOP( '', ( #275 ) );
#195 = EDGE_LOOP( '', ( #276 ) );
#196 = AXIS2_PLACEMENT_3D( '', #277, #278, #279 );
#197 = SURFACE_SIDE_STYLE( '', ( #280 ) );
#198 = EDGE_LOOP( '', ( #281 ) );
#199 = EDGE_LOOP( '', ( #282 ) );
#200 = AXIS2_PLACEMENT_3D( '', #283, #284, #285 );
#201 = SURFACE_SIDE_STYLE( '', ( #286 ) );
#202 = EDGE_LOOP( '', ( #287 ) );
#203 = EDGE_LOOP( '', ( #288 ) );
#204 = AXIS2_PLACEMENT_3D( '', #289, #290, #291 );
#205 = SURFACE_SIDE_STYLE( '', ( #292 ) );
#206 = EDGE_LOOP( '', ( #293 ) );
#207 = EDGE_LOOP( '', ( #294 ) );
#208 = AXIS2_PLACEMENT_3D( '', #295, #296, #297 );
#209 = SURFACE_SIDE_STYLE( '', ( #298 ) );
#210 = EDGE_LOOP( '', ( #299 ) );
#211 = EDGE_LOOP( '', ( #300 ) );
#212 = AXIS2_PLACEMENT_3D( '', #301, #302, #303 );
#213 = SURFACE_SIDE_STYLE( '', ( #304 ) );
#214 = EDGE_LOOP( '', ( #305 ) );
#215 = EDGE_LOOP( '', ( #306 ) );
#216 = AXIS2_PLACEMENT_3D( '', #307, #308, #309 );
#218 = SURFACE_STYLE_FILL_AREA( #310 );
#219 = ORIENTED_EDGE( '', *, *, #311, .T. );
#220 = ORIENTED_EDGE( '', *, *, #312, .F. );
#221 = ORIENTED_EDGE( '', *, *, #313, .F. );
#222 = ORIENTED_EDGE( '', *, *, #314, .F. );
#223 = ORIENTED_EDGE( '', *, *, #315, .F. );
#224 = ORIENTED_EDGE( '', *, *, #316, .F. );
#225 = CARTESIAN_POINT( '', ( 78.0000000000000, 33.1666666666667, 0.000000000000000 ) );
#226 = DIRECTION( '', ( 1.00000000000000, 0.000000000000000, -0.000000000000000 ) );
#227 = DIRECTION( '', ( -0.000000000000000, 0.000000000000000, -1.00000000000000 ) );
#228 = SURFACE_STYLE_FILL_AREA( #317 );
#229 = ORIENTED_EDGE( '', *, *, #318, .T. );
#230 = ORIENTED_EDGE( '', *, *, #319, .T. );
#231 = ORIENTED_EDGE( '', *, *, #320, .T. );
#232 = ORIENTED_EDGE( '', *, *, #321, .T. );
#233 = ORIENTED_EDGE( '', *, *, #322, .T. );
#234 = ORIENTED_EDGE( '', *, *, #323, .F. );
#235 = CARTESIAN_POINT( '', ( 63.0000000000000, 57.5000000000000, 0.000000000000000 ) );
#236 = DIRECTION( '', ( -1.00000000000000, 0.000000000000000, 0.000000000000000 ) );
#237 = DIRECTION( '', ( 0.000000000000000, 0.000000000000000, 1.00000000000000 ) );
#238 = SURFACE_STYLE_FILL_AREA( #324 );
#239 = ORIENTED_EDGE( '', *, *, #325, .T. );
#240 = ORIENTED_EDGE( '', *, *, #318, .F. );
#241 = CARTESIAN_POINT( '', ( 63.0000000000000, 0.000000000000000, 0.000000000000000 ) );
#242 = DIRECTION( '', ( -1.00000000000000, 0.000000000000000, -0.000000000000000 ) );
#243 = DIRECTION( '', ( 0.000000000000000, 0.000000000000000, 1.00000000000000 ) );
#244 = SURFACE_STYLE_FILL_AREA( #326 );
#245 = ORIENTED_EDGE( '', *, *, #327, .T. );
#246 = ORIENTED_EDGE( '', *, *, #328, .F. );
#247 = CARTESIAN_POINT( '', ( 0.000000000000000, 0.000000000000000, 0.000000000000000 ) );
#248 = DIRECTION( '', ( 1.00000000000000, 0.000000000000000, 0.000000000000000 ) );
#249 = DIRECTION( '', ( 0.000000000000000, 0.000000000000000, -1.00000000000000 ) );
#250 = SURFACE_STYLE_FILL_AREA( #329 );
#251 = ORIENTED_EDGE( '', *, *, #323, .T. );
#252 = ORIENTED_EDGE( '', *, *, #311, .F. );
#253 = CARTESIAN_POINT( '', ( 81.0000000000000, 0.000000000000000, 0.000000000000000 ) );
#254 = DIRECTION( '', ( -1.00000000000000, -0.000000000000000, 0.000000000000000 ) );
#255 = DIRECTION( '', ( -0.000000000000000, 0.000000000000000, -1.00000000000000 ) );
#256 = SURFACE_STYLE_FILL_AREA( #330 );
#257 = ORIENTED_EDGE( '', *, *, #325, .F. );
#258 = ORIENTED_EDGE( '', *, *, #328, .T. );
#259 = CARTESIAN_POINT( '', ( 72.0000000000000, 0.000000000000000, 0.000000000000000 ) );
#260 = DIRECTION( '', ( 1.00000000000000, -0.000000000000000, -0.000000000000000 ) );
#261 = DIRECTION( '', ( 0.000000000000000, 0.000000000000000, 1.00000000000000 ) );
#262 = SURFACE_STYLE_FILL_AREA( #331 );
#263 = ORIENTED_EDGE( '', *, *, #316, .T. );
#264 = ORIENTED_EDGE( '', *, *, #332, .F. );
#265 = CARTESIAN_POINT( '', ( 81.0000000000000, 0.000000000000000, 0.000000000000000 ) );
#266 = DIRECTION( '', ( -1.00000000000000, -0.000000000000000, 0.000000000000000 ) );
#267 = DIRECTION( '', ( -0.000000000000000, 0.000000000000000, -1.00000000000000 ) );
#268 = SURFACE_STYLE_FILL_AREA( #333 );
#269 = ORIENTED_EDGE( '', *, *, #332, .T. );
#270 = ORIENTED_EDGE( '', *, *, #334, .F. );
#271 = CARTESIAN_POINT( '', ( 81.0000000000000, 14.2494227822395, 0.000000000000000 ) );
#272 = DIRECTION( '', ( 1.00000000000000, 0.000000000000000, -0.000000000000000 ) );
#273 = DIRECTION( '', ( -0.000000000000000, 0.000000000000000, -1.00000000000000 ) );
#274 = SURFACE_STYLE_FILL_AREA( #335 );
#275 = ORIENTED_EDGE( '', *, *, #312, .T. );
#276 = ORIENTED_EDGE( '', *, *, #319, .F. );
#277 = CARTESIAN_POINT( '', ( 63.0000000000000, 42.5000000000000, 0.000000000000000 ) );
#278 = DIRECTION( '', ( -1.00000000000000, -0.000000000000000, -0.000000000000000 ) );
#279 = DIRECTION( '', ( 0.000000000000000, 0.000000000000000, -1.00000000000000 ) );
#280 = SURFACE_STYLE_FILL_AREA( #336 );
#281 = ORIENTED_EDGE( '', *, *, #337, .T. );
#282 = ORIENTED_EDGE( '', *, *, #327, .F. );
#283 = CARTESIAN_POINT( '', ( 81.0000000000000, 0.000000000000000, 0.000000000000000 ) );
#284 = DIRECTION( '', ( -1.00000000000000, -0.000000000000000, 0.000000000000000 ) );
#285 = DIRECTION( '', ( -0.000000000000000, 0.000000000000000, -1.00000000000000 ) );
#286 = SURFACE_STYLE_FILL_AREA( #338 );
#287 = ORIENTED_EDGE( '', *, *, #314, .T. );
#288 = ORIENTED_EDGE( '', *, *, #321, .F. );
#289 = CARTESIAN_POINT( '', ( 63.0000000000000, -42.5000000000000, -5.20474889637625E-15 ) );
#290 = DIRECTION( '', ( -1.00000000000000, -0.000000000000000, -0.000000000000000 ) );
#291 = DIRECTION( '', ( 0.000000000000000, 0.000000000000000, -1.00000000000000 ) );
#292 = SURFACE_STYLE_FILL_AREA( #339 );
#293 = ORIENTED_EDGE( '', *, *, #313, .T. );
#294 = ORIENTED_EDGE( '', *, *, #320, .F. );
#295 = CARTESIAN_POINT( '', ( 63.0000000000000, 0.000000000000000, -42.5000000000000 ) );
#296 = DIRECTION( '', ( -1.00000000000000, -0.000000000000000, -0.000000000000000 ) );
#297 = DIRECTION( '', ( 0.000000000000000, 0.000000000000000, -1.00000000000000 ) );
#298 = SURFACE_STYLE_FILL_AREA( #340 );
#299 = ORIENTED_EDGE( '', *, *, #334, .T. );
#300 = ORIENTED_EDGE( '', *, *, #337, .F. );
#301 = CARTESIAN_POINT( '', ( 72.0000000000000, 0.000000000000000, 0.000000000000000 ) );
#302 = DIRECTION( '', ( 1.00000000000000, -0.000000000000000, -0.000000000000000 ) );
#303 = DIRECTION( '', ( -0.000000000000000, 0.000000000000000, -1.00000000000000 ) );
#304 = SURFACE_STYLE_FILL_AREA( #341 );
#305 = ORIENTED_EDGE( '', *, *, #315, .T. );
#306 = ORIENTED_EDGE( '', *, *, #322, .F. );
#307 = CARTESIAN_POINT( '', ( 63.0000000000000, -6.93889390390723E-15, 42.5000000000000 ) );
#308 = DIRECTION( '', ( -1.00000000000000, -0.000000000000000, -0.000000000000000 ) );
#309 = DIRECTION( '', ( 0.000000000000000, 0.000000000000000, -1.00000000000000 ) );
#310 = FILL_AREA_STYLE( '', ( #342 ) );
#311 = EDGE_CURVE( '', #343, #343, #344, .T. );
#312 = EDGE_CURVE( '', #345, #345, #346, .T. );
#313 = EDGE_CURVE( '', #347, #347, #348, .T. );
#314 = EDGE_CURVE( '', #349, #349, #350, .T. );
#315 = EDGE_CURVE( '', #351, #351, #352, .T. );
#316 = EDGE_CURVE( '', #353, #353, #354, .T. );
#317 = FILL_AREA_STYLE( '', ( #355 ) );
#318 = EDGE_CURVE( '', #356, #356, #357, .T. );
#319 = EDGE_CURVE( '', #358, #358, #359, .T. );
#320 = EDGE_CURVE( '', #360, #360, #361, .T. );
#321 = EDGE_CURVE( '', #362, #362, #363, .T. );
#322 = EDGE_CURVE( '', #364, #364, #365, .T. );
#323 = EDGE_CURVE( '', #366, #366, #367, .T. );
#324 = FILL_AREA_STYLE( '', ( #368 ) );
#325 = EDGE_CURVE( '', #369, #369, #370, .F. );
#326 = FILL_AREA_STYLE( '', ( #371 ) );
#327 = EDGE_CURVE( '', #372, #372, #373, .T. );
#328 = EDGE_CURVE( '', #374, #374, #375, .T. );
#329 = FILL_AREA_STYLE( '', ( #376 ) );
#330 = FILL_AREA_STYLE( '', ( #377 ) );
#331 = FILL_AREA_STYLE( '', ( #378 ) );
#332 = EDGE_CURVE( '', #379, #379, #380, .T. );
#333 = FILL_AREA_STYLE( '', ( #381 ) );
#334 = EDGE_CURVE( '', #382, #382, #383, .T. );
#335 = FILL_AREA_STYLE( '', ( #384 ) );
#336 = FILL_AREA_STYLE( '', ( #385 ) );
#337 = EDGE_CURVE( '', #386, #386, #387, .T. );
#338 = FILL_AREA_STYLE( '', ( #388 ) );
#339 = FILL_AREA_STYLE( '', ( #389 ) );
#340 = FILL_AREA_STYLE( '', ( #390 ) );
#341 = FILL_AREA_STYLE( '', ( #391 ) );
#342 = FILL_AREA_STYLE_COLOUR( '', #392 );
#343 = VERTEX_POINT( '', #393 );
#344 = CIRCLE( '', #394, 57.5000000000000 );
#345 = VERTEX_POINT( '', #395 );
#346 = CIRCLE( '', #396, 7.00000000000000 );
#347 = VERTEX_POINT( '', #397 );
#348 = CIRCLE( '', #398, 7.00000000000000 );
#349 = VERTEX_POINT( '', #399 );
#350 = CIRCLE( '', #400, 7.00000000000000 );
#351 = VERTEX_POINT( '', #401 );
#352 = CIRCLE( '', #402, 7.00000000000000 );
#353 = VERTEX_POINT( '', #403 );
#354 = CIRCLE( '', #404, 33.1666666667000 );
#355 = FILL_AREA_STYLE_COLOUR( '', #405 );
#356 = VERTEX_POINT( '', #406 );
#357 = CIRCLE( '', #407, 24.8157676650000 );
#358 = VERTEX_POINT( '', #408 );
#359 = CIRCLE( '', #409, 7.00000000000000 );
#360 = VERTEX_POINT( '', #410 );
#361 = CIRCLE( '', #411, 7.00000000000000 );
#362 = VERTEX_POINT( '', #412 );
#363 = CIRCLE( '', #413, 7.00000000000000 );
#364 = VERTEX_POINT( '', #414 );
#365 = CIRCLE( '', #415, 7.00000000000000 );
#366 = VERTEX_POINT( '', #416 );
#367 = CIRCLE( '', #417, 57.5000000000000 );
#368 = FILL_AREA_STYLE_COLOUR( '', #418 );
#369 = VERTEX_POINT( '', #419 );
#370 = CIRCLE( '', #420, 14.0000000000000 );
#371 = FILL_AREA_STYLE_COLOUR( '', #421 );
#372 = VERTEX_POINT( '', #422 );
#373 = CIRCLE( '', #423, 12.5000000000000 );
#374 = VERTEX_POINT( '', #424 );
#375 = CIRCLE( '', #425, 14.0000000000000 );
#376 = FILL_AREA_STYLE_COLOUR( '', #426 );
#377 = FILL_AREA_STYLE_COLOUR( '', #427 );
#378 = FILL_AREA_STYLE_COLOUR( '', #428 );
#379 = VERTEX_POINT( '', #429 );
#380 = CIRCLE( '', #430, 33.1666666667000 );
#381 = FILL_AREA_STYLE_COLOUR( '', #431 );
#382 = VERTEX_POINT( '', #432 );
#383 = CIRCLE( '', #433, 14.2494227822000 );
#384 = FILL_AREA_STYLE_COLOUR( '', #434 );
#385 = FILL_AREA_STYLE_COLOUR( '', #435 );
#386 = VERTEX_POINT( '', #436 );
#387 = CIRCLE( '', #437, 12.5000000000000 );
#388 = FILL_AREA_STYLE_COLOUR( '', #438 );
#389 = FILL_AREA_STYLE_COLOUR( '', #439 );
#390 = FILL_AREA_STYLE_COLOUR( '', #440 );
#391 = FILL_AREA_STYLE_COLOUR( '', #441 );
#392 = COLOUR_RGB( '', 0.689999997600000, 0.689999997600000, 0.689999997600000 );
#393 = CARTESIAN_POINT( '', ( 78.0000000000000, 0.000000000000000, -57.5000000000000 ) );
#394 = AXIS2_PLACEMENT_3D( '', #442, #443, #444 );
#395 = CARTESIAN_POINT( '', ( 78.0000000000000, 42.5000000000000, -7.00000000000000 ) );
#396 = AXIS2_PLACEMENT_3D( '', #445, #446, #447 );
#397 = CARTESIAN_POINT( '', ( 78.0000000000000, 0.000000000000000, -49.5000000000000 ) );
#398 = AXIS2_PLACEMENT_3D( '', #448, #449, #450 );
#399 = CARTESIAN_POINT( '', ( 78.0000000000000, -42.5000000000000, -7.00000000000001 ) );
#400 = AXIS2_PLACEMENT_3D( '', #451, #452, #453 );
#401 = CARTESIAN_POINT( '', ( 78.0000000000000, -6.93889390390723E-15, 35.5000000000000 ) );
#402 = AXIS2_PLACEMENT_3D( '', #454, #455, #456 );
#403 = CARTESIAN_POINT( '', ( 78.0000000000000, 0.000000000000000, -33.1666666666667 ) );
#404 = AXIS2_PLACEMENT_3D( '', #457, #458, #459 );
#405 = COLOUR_RGB( '', 0.689999997600000, 0.689999997600000, 0.689999997600000 );
#406 = CARTESIAN_POINT( '', ( 63.0000000000000, 0.000000000000000, -24.8157676649773 ) );
#407 = AXIS2_PLACEMENT_3D( '', #460, #461, #462 );
#408 = CARTESIAN_POINT( '', ( 63.0000000000000, 42.5000000000000, -7.00000000000000 ) );
#409 = AXIS2_PLACEMENT_3D( '', #463, #464, #465 );
#410 = CARTESIAN_POINT( '', ( 63.0000000000000, 0.000000000000000, -49.5000000000000 ) );
#411 = AXIS2_PLACEMENT_3D( '', #466, #467, #468 );
#412 = CARTESIAN_POINT( '', ( 63.0000000000000, -42.5000000000000, -7.00000000000001 ) );
#413 = AXIS2_PLACEMENT_3D( '', #469, #470, #471 );
#414 = CARTESIAN_POINT( '', ( 63.0000000000000, -6.93889390390723E-15, 35.5000000000000 ) );
#415 = AXIS2_PLACEMENT_3D( '', #472, #473, #474 );
#416 = CARTESIAN_POINT( '', ( 63.0000000000000, 0.000000000000000, -57.5000000000000 ) );
#417 = AXIS2_PLACEMENT_3D( '', #475, #476, #477 );
#418 = COLOUR_RGB( '', 0.689999997600000, 0.689999997600000, 0.689999997600000 );
#419 = CARTESIAN_POINT( '', ( 65.8980762113533, 0.000000000000000, 14.0000000000000 ) );
#420 = AXIS2_PLACEMENT_3D( '', #478, #479, #480 );
#421 = COLOUR_RGB( '', 0.689999997600000, 0.689999997600000, 0.689999997600000 );
#422 = CARTESIAN_POINT( '', ( 0.000000000000000, 0.000000000000000, -12.5000000000000 ) );
#423 = AXIS2_PLACEMENT_3D( '', #481, #482, #483 );
#424 = CARTESIAN_POINT( '', ( 0.000000000000000, 0.000000000000000, -14.0000000000000 ) );
#425 = AXIS2_PLACEMENT_3D( '', #484, #485, #486 );
#426 = COLOUR_RGB( '', 0.689999997600000, 0.689999997600000, 0.689999997600000 );
#427 = COLOUR_RGB( '', 0.689999997600000, 0.689999997600000, 0.689999997600000 );
#428 = COLOUR_RGB( '', 0.689999997600000, 0.689999997600000, 0.689999997600000 );
#429 = CARTESIAN_POINT( '', ( 81.0000000000000, 0.000000000000000, -33.1666666666667 ) );
#430 = AXIS2_PLACEMENT_3D( '', #487, #488, #489 );
#431 = COLOUR_RGB( '', 0.689999997600000, 0.689999997600000, 0.689999997600000 );
#432 = CARTESIAN_POINT( '', ( 81.0000000000000, 0.000000000000000, -14.2494227822395 ) );
#433 = AXIS2_PLACEMENT_3D( '', #490, #491, #492 );
#434 = COLOUR_RGB( '', 0.689999997600000, 0.689999997600000, 0.689999997600000 );
#435 = COLOUR_RGB( '', 0.689999997600000, 0.689999997600000, 0.689999997600000 );
#436 = CARTESIAN_POINT( '', ( 72.0000000000000, 0.000000000000000, -12.5000000000000 ) );
#437 = AXIS2_PLACEMENT_3D( '', #493, #494, #495 );
#438 = COLOUR_RGB( '', 0.689999997600000, 0.689999997600000, 0.689999997600000 );
#439 = COLOUR_RGB( '', 0.689999997600000, 0.689999997600000, 0.689999997600000 );
#440 = COLOUR_RGB( '', 0.689999997600000, 0.689999997600000, 0.689999997600000 );
#441 = COLOUR_RGB( '', 0.689999997600000, 0.689999997600000, 0.689999997600000 );
#442 = CARTESIAN_POINT( '', ( 78.0000000000000, 0.000000000000000, 0.000000000000000 ) );
#443 = DIRECTION( '', ( 1.00000000000000, 0.000000000000000, -0.000000000000000 ) );
#444 = DIRECTION( '', ( -0.000000000000000, 0.000000000000000, -1.00000000000000 ) );
#445 = CARTESIAN_POINT( '', ( 78.0000000000000, 42.5000000000000, 0.000000000000000 ) );
#446 = DIRECTION( '', ( 1.00000000000000, 0.000000000000000, -0.000000000000000 ) );
#447 = DIRECTION( '', ( -0.000000000000000, 0.000000000000000, -1.00000000000000 ) );
#448 = CARTESIAN_POINT( '', ( 78.0000000000000, 0.000000000000000, -42.5000000000000 ) );
#449 = DIRECTION( '', ( 1.00000000000000, 0.000000000000000, -0.000000000000000 ) );
#450 = DIRECTION( '', ( -0.000000000000000, 0.000000000000000, -1.00000000000000 ) );
#451 = CARTESIAN_POINT( '', ( 78.0000000000000, -42.5000000000000, -5.20474889637625E-15 ) );
#452 = DIRECTION( '', ( 1.00000000000000, 0.000000000000000, -0.000000000000000 ) );
#453 = DIRECTION( '', ( -0.000000000000000, 0.000000000000000, -1.00000000000000 ) );
#454 = CARTESIAN_POINT( '', ( 78.0000000000000, -6.93889390390723E-15, 42.5000000000000 ) );
#455 = DIRECTION( '', ( 1.00000000000000, 0.000000000000000, -0.000000000000000 ) );
#456 = DIRECTION( '', ( -0.000000000000000, 0.000000000000000, -1.00000000000000 ) );
#457 = CARTESIAN_POINT( '', ( 78.0000000000000, 0.000000000000000, 0.000000000000000 ) );
#458 = DIRECTION( '', ( 1.00000000000000, 0.000000000000000, -0.000000000000000 ) );
#459 = DIRECTION( '', ( -0.000000000000000, 0.000000000000000, -1.00000000000000 ) );
#460 = CARTESIAN_POINT( '', ( 63.0000000000000, 0.000000000000000, 0.000000000000000 ) );
#461 = DIRECTION( '', ( 1.00000000000000, 0.000000000000000, -0.000000000000000 ) );
#462 = DIRECTION( '', ( -0.000000000000000, 0.000000000000000, -1.00000000000000 ) );
#463 = CARTESIAN_POINT( '', ( 63.0000000000000, 42.5000000000000, 0.000000000000000 ) );
#464 = DIRECTION( '', ( 1.00000000000000, 0.000000000000000, 0.000000000000000 ) );
#465 = DIRECTION( '', ( 0.000000000000000, 0.000000000000000, -1.00000000000000 ) );
#466 = CARTESIAN_POINT( '', ( 63.0000000000000, 0.000000000000000, -42.5000000000000 ) );
#467 = DIRECTION( '', ( 1.00000000000000, 0.000000000000000, 0.000000000000000 ) );
#468 = DIRECTION( '', ( 0.000000000000000, 0.000000000000000, -1.00000000000000 ) );
#469 = CARTESIAN_POINT( '', ( 63.0000000000000, -42.5000000000000, -5.20474889637625E-15 ) );
#470 = DIRECTION( '', ( 1.00000000000000, 0.000000000000000, 0.000000000000000 ) );
#471 = DIRECTION( '', ( 0.000000000000000, 0.000000000000000, -1.00000000000000 ) );
#472 = CARTESIAN_POINT( '', ( 63.0000000000000, -6.93889390390723E-15, 42.5000000000000 ) );
#473 = DIRECTION( '', ( 1.00000000000000, 0.000000000000000, 0.000000000000000 ) );
#474 = DIRECTION( '', ( 0.000000000000000, 0.000000000000000, -1.00000000000000 ) );
#475 = CARTESIAN_POINT( '', ( 63.0000000000000, 0.000000000000000, 0.000000000000000 ) );
#476 = DIRECTION( '', ( 1.00000000000000, 0.000000000000000, -0.000000000000000 ) );
#477 = DIRECTION( '', ( -0.000000000000000, 0.000000000000000, -1.00000000000000 ) );
#478 = CARTESIAN_POINT( '', ( 65.8980762113533, 0.000000000000000, 0.000000000000000 ) );
#479 = DIRECTION( '', ( -1.00000000000000, 0.000000000000000, 0.000000000000000 ) );
#480 = DIRECTION( '', ( 0.000000000000000, 0.000000000000000, 1.00000000000000 ) );
#481 = CARTESIAN_POINT( '', ( 0.000000000000000, 0.000000000000000, 0.000000000000000 ) );
#482 = DIRECTION( '', ( 1.00000000000000, 0.000000000000000, 0.000000000000000 ) );
#483 = DIRECTION( '', ( 0.000000000000000, 0.000000000000000, -1.00000000000000 ) );
#484 = CARTESIAN_POINT( '', ( 0.000000000000000, 0.000000000000000, 0.000000000000000 ) );
#485 = DIRECTION( '', ( 1.00000000000000, 0.000000000000000, 0.000000000000000 ) );
#486 = DIRECTION( '', ( 0.000000000000000, 0.000000000000000, -1.00000000000000 ) );
#487 = CARTESIAN_POINT( '', ( 81.0000000000000, 0.000000000000000, 0.000000000000000 ) );
#488 = DIRECTION( '', ( 1.00000000000000, 0.000000000000000, -0.000000000000000 ) );
#489 = DIRECTION( '', ( -0.000000000000000, 0.000000000000000, -1.00000000000000 ) );
#490 = CARTESIAN_POINT( '', ( 81.0000000000000, 0.000000000000000, 0.000000000000000 ) );
#491 = DIRECTION( '', ( 1.00000000000000, 0.000000000000000, -0.000000000000000 ) );
#492 = DIRECTION( '', ( -0.000000000000000, 0.000000000000000, -1.00000000000000 ) );
#493 = CARTESIAN_POINT( '', ( 72.0000000000000, 0.000000000000000, 0.000000000000000 ) );
#494 = DIRECTION( '', ( 1.00000000000000, 0.000000000000000, -0.000000000000000 ) );
#495 = DIRECTION( '', ( -0.000000000000000, 0.000000000000000, -1.00000000000000 ) );
ENDSEC;
END-ISO-10303-21;
