ISO-10303-21;
HEADER;
/****************************************************************
 * Generated by software with PDE/Lib inside                    *
 * PDElib Version v51a, created Thu 01/14/2010                  *
 * ITI Transcendata (http://www.transcendata.com/)              *
 ****************************************************************/
FILE_DESCRIPTION((''),'2;1');
FILE_NAME('P:\\2. PROJECTEN\\2017\\PRO.1703.01\\3. ONTWERP\\PRO.1703.01 - 0\\2. PARTS\\200 PIPING\\T-stuk kort 4.0inch.stp','2017-03-06T12:52:13',('Engineer'),(''),'Autodesk Inventor 2011','Autodesk Inventor 2011','');
FILE_SCHEMA(('AUTOMOTIVE_DESIGN { 1 0 10303 214 1 1 1 1 }'));
ENDSEC;
DATA;
#5=APPLICATION_CONTEXT('automotive design');
#6=APPLICATION_PROTOCOL_DEFINITION('International Standard','automotive_design',2001,#5);
#7=PRODUCT_CONTEXT('',#5,'mechanical');
#8=PRODUCT('T-stuk kort iPart','T-stuk kort iPart',$,(#7));
#9=PRODUCT_RELATED_PRODUCT_CATEGORY('part',$,(#8));
#10=PRODUCT_DEFINITION_FORMATION('',$,#8);
#11=PRODUCT_DEFINITION_CONTEXT('part definition',#5,'design');
#12=PRODUCT_DEFINITION('',$,#10,#11);
#18=(NAMED_UNIT(*)PLANE_ANGLE_UNIT()SI_UNIT($,.RADIAN.));
#19=DIMENSIONAL_EXPONENTS(0.0,0.0,0.0,0.0,0.0,0.0,0.0);
#20=PLANE_ANGLE_MEASURE_WITH_UNIT(PLANE_ANGLE_MEASURE(0.017453292500000),#18);
#24=(CONVERSION_BASED_UNIT('DEGREE',#20)NAMED_UNIT(#19)PLANE_ANGLE_UNIT());
#28=(NAMED_UNIT(*)SI_UNIT($,.STERADIAN.)SOLID_ANGLE_UNIT());
#32=(LENGTH_UNIT()NAMED_UNIT(*)SI_UNIT(.MILLI.,.METRE.));
#34=UNCERTAINTY_MEASURE_WITH_UNIT(LENGTH_MEASURE(0.010000000000000),#32,'DISTANCE_ACCURACY_VALUE','');
#36=(GEOMETRIC_REPRESENTATION_CONTEXT(3)GLOBAL_UNCERTAINTY_ASSIGNED_CONTEXT((#34))GLOBAL_UNIT_ASSIGNED_CONTEXT((#24,#28,#32))REPRESENTATION_CONTEXT('None','None'));
#37=AXIS2_PLACEMENT_3D('',#38,#39,#40);
#38=CARTESIAN_POINT('',(0.0,0.0,0.0));
#39=DIRECTION('',(0.0,0.0,1.0));
#40=DIRECTION('',(1.0,0.0,0.0));
#41=SHAPE_REPRESENTATION('',(#37),#36);
#42=PRODUCT_DEFINITION_SHAPE('','',#12);
#43=SHAPE_DEFINITION_REPRESENTATION(#42,#41);
#49=(NAMED_UNIT(*)PLANE_ANGLE_UNIT()SI_UNIT($,.RADIAN.));
#50=DIMENSIONAL_EXPONENTS(0.0,0.0,0.0,0.0,0.0,0.0,0.0);
#51=PLANE_ANGLE_MEASURE_WITH_UNIT(PLANE_ANGLE_MEASURE(0.017453292500000),#49);
#55=(CONVERSION_BASED_UNIT('DEGREE',#51)NAMED_UNIT(#50)PLANE_ANGLE_UNIT());
#59=(NAMED_UNIT(*)SI_UNIT($,.STERADIAN.)SOLID_ANGLE_UNIT());
#63=(LENGTH_UNIT()NAMED_UNIT(*)SI_UNIT(.MILLI.,.METRE.));
#65=UNCERTAINTY_MEASURE_WITH_UNIT(LENGTH_MEASURE(0.000001000000000),#63,'DISTANCE_ACCURACY_VALUE','');
#67=(GEOMETRIC_REPRESENTATION_CONTEXT(3)GLOBAL_UNCERTAINTY_ASSIGNED_CONTEXT((#65))GLOBAL_UNIT_ASSIGNED_CONTEXT((#55,#59,#63))REPRESENTATION_CONTEXT('','3D'));
#68=CARTESIAN_POINT('',(8.169263E-015,-50.799999999999997,3.196328E-015));
#69=CARTESIAN_POINT('',(8.169263E-015,-50.799999999999997,3.196328E-015));
#70=CARTESIAN_POINT('',(8.169263E-015,-50.799999999999990,3.196328E-015));
#71=CARTESIAN_POINT('',(8.169263E-015,-50.799999999999997,3.196328E-015));
#72=CARTESIAN_POINT('',(8.169263E-015,-50.799999999999997,3.196328E-015));
#73=CARTESIAN_POINT('',(7.599662228683889,-50.799999999999997,7.809101738923202));
#74=CARTESIAN_POINT('',(7.639555468729474,-50.799999999999997,7.769208498877629));
#75=CARTESIAN_POINT('',(7.709368638809243,-50.799999999999990,7.699395328797833));
#76=CARTESIAN_POINT('',(7.779181808889017,-50.799999999999997,7.629582158718080));
#77=CARTESIAN_POINT('',(7.809101738923206,-50.799999999999997,7.599662228683885));
#78=CARTESIAN_POINT('',(22.796249628565306,-47.336577363141828,23.424492728565159));
#79=CARTESIAN_POINT('',(22.914070320884512,-47.299905497947336,23.303293307693409));
#80=CARTESIAN_POINT('',(23.121257636221976,-47.273452217619180,23.091254373350086));
#81=CARTESIAN_POINT('',(23.333492518154721,-47.308840983562526,22.884499584084089));
#82=CARTESIAN_POINT('',(23.424492728565149,-47.336577363141828,22.796249628565310));
#83=CARTESIAN_POINT('',(41.072574894539258,-32.754567392372124,42.204496249900529));
#84=CARTESIAN_POINT('',(41.200401190735825,-32.600156315732825,41.944291825535757));
#85=CARTESIAN_POINT('',(41.552904891583218,-32.474018341325078,41.488169438460510));
#86=CARTESIAN_POINT('',(42.009022132830040,-32.638730830354334,41.168092640367846));
#87=CARTESIAN_POINT('',(42.204496249900558,-32.754567392372138,41.072574894539244));
#88=CARTESIAN_POINT('',(51.223817595754689,-11.691346400915876,52.635497608236157));
#89=CARTESIAN_POINT('',(51.219645657282136,-11.567760841043679,52.211121828281584));
#90=CARTESIAN_POINT('',(51.574917171011911,-11.457393379788371,51.477973369818748));
#91=CARTESIAN_POINT('',(52.317713737872573,-11.599355829197783,51.221238411988573));
#92=CARTESIAN_POINT('',(52.635497608236136,-11.691346400915865,51.223817595754696));
#93=CARTESIAN_POINT('',(51.216320049905647,11.689940673595579,52.627793437107741));
#94=CARTESIAN_POINT('',(51.212909067370376,11.567398067955128,52.203771482587868));
#95=CARTESIAN_POINT('',(51.567233901480101,11.457402578121956,51.470408410552238));
#96=CARTESIAN_POINT('',(52.309968119195709,11.598549131031479,51.213972007902058));
#97=CARTESIAN_POINT('',(52.627793437107755,11.689940673595576,51.216320049905633));
#98=CARTESIAN_POINT('',(41.078918069771234,32.758513875237114,42.211014237048389));
#99=CARTESIAN_POINT('',(41.208179379006893,32.603609140382176,41.951719949602861));
#100=CARTESIAN_POINT('',(41.561544959445271,32.477826946293590,41.496917760715554));
#101=CARTESIAN_POINT('',(42.016169180637426,32.642497222112183,41.175454397260829));
#102=CARTESIAN_POINT('',(42.211014237048389,32.758513875237099,41.078918069771227));
#103=CARTESIAN_POINT('',(22.792616899310111,47.333161802012995,23.420759884724170));
#104=CARTESIAN_POINT('',(22.910182731947600,47.295740345448600,23.299638575446131));
#105=CARTESIAN_POINT('',(23.118063581869119,47.268510628286968,23.087998299189092));
#106=CARTESIAN_POINT('',(23.329942927699143,47.304892603990957,22.880814617959622));
#107=CARTESIAN_POINT('',(23.420759884724170,47.333161802013002,22.792616899310104));
#108=CARTESIAN_POINT('',(7.599662228683889,50.799999999999997,7.809101738923202));
#109=CARTESIAN_POINT('',(7.639555468729474,50.799999999999997,7.769208498877629));
#110=CARTESIAN_POINT('',(7.709368638809244,50.799999999999990,7.699395328797833));
#111=CARTESIAN_POINT('',(7.779181808889018,50.799999999999997,7.629582158718079));
#112=CARTESIAN_POINT('',(7.809101738923207,50.799999999999997,7.599662228683883));
#113=CARTESIAN_POINT('',(8.169263E-015,50.799999999999997,3.196328E-015));
#114=CARTESIAN_POINT('',(8.288146E-015,50.799999999999997,3.077445E-015));
#115=CARTESIAN_POINT('',(8.496191E-015,50.799999999999990,2.869400E-015));
#116=CARTESIAN_POINT('',(8.704236E-015,50.799999999999997,2.661355E-015));
#117=CARTESIAN_POINT('',(8.793398E-015,50.799999999999997,2.572193E-015));
#118=B_SPLINE_SURFACE_WITH_KNOTS('',3,3,((#68,#73,#78,#83,#88,#93,#98,#103,#108,#113),(#69,#74,#79,#84,#89,#94,#99,#104,#109,#114),(#70,#75,#80,#85,#90,#95,#100,#105,#110,#115),(#71,#76,#81,#86,#91,#96,#101,#106,#111,#116),(#72,#77,#82,#87,#92,#97,#102,#107,#112,#117)),.UNSPECIFIED.,.F.,.F.,.U.,(4,1,4),(4,1,1,1,1,1,1,4),(0.0,0.571428571428571,1.0),(-1.570796326794897,-1.121997376282069,-0.673198425769241,-0.224399475256414,0.224399475256414,0.673198425769241,1.121997376282069,1.570796326794897),.UNSPECIFIED.);
#119=CARTESIAN_POINT('',(0.0,-50.799999999999997,0.0));
#120=VERTEX_POINT('',#119);
#121=CARTESIAN_POINT('',(0.0,50.799999999999997,0.0));
#122=VERTEX_POINT('',#121);
#123=CARTESIAN_POINT('',(-4.440892E-015,0.0,0.0));
#124=DIRECTION('',(-0.697431199241300,6.096883E-017,0.716651744102281));
#125=DIRECTION('',(0.716651744102281,0.0,0.697431199241300));
#126=AXIS2_PLACEMENT_3D('',#123,#124,#125);
#127=ELLIPSE('',#126,72.838725963597128,50.799999999999997);
#128=EDGE_CURVE('',#120,#122,#127,.T.);
#129=ORIENTED_EDGE('',*,*,#128,.T.);
#130=CARTESIAN_POINT('',(0.0,0.0,0.0));
#131=DIRECTION('',(0.716651744102281,0.0,-0.697431199241300));
#132=DIRECTION('',(0.697431199241300,0.0,0.716651744102281));
#133=AXIS2_PLACEMENT_3D('',#130,#131,#132);
#134=ELLIPSE('',#133,72.838725963597128,50.800000000000004);
#135=EDGE_CURVE('',#122,#120,#134,.T.);
#136=ORIENTED_EDGE('',*,*,#135,.T.);
#137=EDGE_LOOP('',(#129,#136));
#138=FACE_OUTER_BOUND('',#137,.T.);
#139=ADVANCED_FACE('',(#138),#118,.T.);
#140=CARTESIAN_POINT('',(8.169263E-015,50.799999999999997,-3.196328E-015));
#141=CARTESIAN_POINT('',(8.169263E-015,50.799999999999997,-3.196328E-015));
#142=CARTESIAN_POINT('',(8.169263E-015,50.799999999999990,-3.196328E-015));
#143=CARTESIAN_POINT('',(8.169263E-015,50.799999999999997,-3.196328E-015));
#144=CARTESIAN_POINT('',(8.169263E-015,50.799999999999997,-3.196328E-015));
#145=CARTESIAN_POINT('',(7.599662228683889,50.799999999999997,-7.809101738923202));
#146=CARTESIAN_POINT('',(7.639555468729474,50.799999999999997,-7.769208498877629));
#147=CARTESIAN_POINT('',(7.709368638809243,50.799999999999990,-7.699395328797833));
#148=CARTESIAN_POINT('',(7.779181808889017,50.799999999999997,-7.629582158718080));
#149=CARTESIAN_POINT('',(7.809101738923206,50.799999999999997,-7.599662228683885));
#150=CARTESIAN_POINT('',(22.796249628565306,47.336577363141828,-23.424492728565159));
#151=CARTESIAN_POINT('',(22.914070320884488,47.299905497947350,-23.303293307693409));
#152=CARTESIAN_POINT('',(23.121257636221976,47.273452217619180,-23.091254373350118));
#153=CARTESIAN_POINT('',(23.333492518154713,47.308840983562561,-22.884499584084100));
#154=CARTESIAN_POINT('',(23.424492728565145,47.336577363141849,-22.796249628565320));
#155=CARTESIAN_POINT('',(41.072574894539258,32.754567392372124,-42.204496249900529));
#156=CARTESIAN_POINT('',(41.200401190735853,32.600156315732832,-41.944291825535757));
#157=CARTESIAN_POINT('',(41.552904891583218,32.474018341325078,-41.488169438460510));
#158=CARTESIAN_POINT('',(42.009022132830019,32.638730830354319,-41.168092640367831));
#159=CARTESIAN_POINT('',(42.204496249900558,32.754567392372124,-41.072574894539244));
#160=CARTESIAN_POINT('',(51.223817595754689,11.691346400915876,-52.635497608236157));
#161=CARTESIAN_POINT('',(51.219645657282115,11.567760841043670,-52.211121828281584));
#162=CARTESIAN_POINT('',(51.574917171011911,11.457393379788385,-51.477973369818748));
#163=CARTESIAN_POINT('',(52.317713737872573,11.599355829197789,-51.221238411988573));
#164=CARTESIAN_POINT('',(52.635497608236136,11.691346400915876,-51.223817595754696));
#165=CARTESIAN_POINT('',(51.216320049905647,-11.689940673595579,-52.627793437107741));
#166=CARTESIAN_POINT('',(51.212909067370411,-11.567398067955132,-52.203771482587868));
#167=CARTESIAN_POINT('',(51.567233901480122,-11.457402578121961,-51.470408410552238));
#168=CARTESIAN_POINT('',(52.309968119195709,-11.598549131031477,-51.213972007902058));
#169=CARTESIAN_POINT('',(52.627793437107755,-11.689940673595574,-51.216320049905633));
#170=CARTESIAN_POINT('',(41.078918069771234,-32.758513875237114,-42.211014237048389));
#171=CARTESIAN_POINT('',(41.208179379006893,-32.603609140382154,-41.951719949602861));
#172=CARTESIAN_POINT('',(41.561544959445264,-32.477826946293568,-41.496917760715554));
#173=CARTESIAN_POINT('',(42.016169180637448,-32.642497222112183,-41.175454397260829));
#174=CARTESIAN_POINT('',(42.211014237048389,-32.758513875237114,-41.078918069771227));
#175=CARTESIAN_POINT('',(22.792616899310111,-47.333161802012995,-23.420759884724170));
#176=CARTESIAN_POINT('',(22.910182731947593,-47.295740345448607,-23.299638575446131));
#177=CARTESIAN_POINT('',(23.118063581869119,-47.268510628286990,-23.087998299189081));
#178=CARTESIAN_POINT('',(23.329942927699143,-47.304892603990957,-22.880814617959622));
#179=CARTESIAN_POINT('',(23.420759884724170,-47.333161802012995,-22.792616899310115));
#180=CARTESIAN_POINT('',(7.599662228683889,-50.799999999999997,-7.809101738923202));
#181=CARTESIAN_POINT('',(7.639555468729474,-50.799999999999997,-7.769208498877629));
#182=CARTESIAN_POINT('',(7.709368638809243,-50.799999999999990,-7.699395328797833));
#183=CARTESIAN_POINT('',(7.779181808889017,-50.799999999999997,-7.629582158718080));
#184=CARTESIAN_POINT('',(7.809101738923206,-50.799999999999997,-7.599662228683885));
#185=CARTESIAN_POINT('',(8.169263E-015,-50.799999999999997,-3.196328E-015));
#186=CARTESIAN_POINT('',(8.169263E-015,-50.799999999999997,-3.196328E-015));
#187=CARTESIAN_POINT('',(8.169263E-015,-50.799999999999990,-3.196328E-015));
#188=CARTESIAN_POINT('',(8.169263E-015,-50.799999999999997,-3.196328E-015));
#189=CARTESIAN_POINT('',(8.169263E-015,-50.799999999999997,-3.196328E-015));
#190=B_SPLINE_SURFACE_WITH_KNOTS('',3,3,((#140,#145,#150,#155,#160,#165,#170,#175,#180,#185),(#141,#146,#151,#156,#161,#166,#171,#176,#181,#186),(#142,#147,#152,#157,#162,#167,#172,#177,#182,#187),(#143,#148,#153,#158,#163,#168,#173,#178,#183,#188),(#144,#149,#154,#159,#164,#169,#174,#179,#184,#189)),.UNSPECIFIED.,.F.,.F.,.U.,(4,1,4),(4,1,1,1,1,1,1,4),(0.0,0.571428571428571,1.0),(-1.570796326794897,-1.121997376282069,-0.673198425769241,-0.224399475256414,0.224399475256414,0.673198425769241,1.121997376282069,1.570796326794897),.UNSPECIFIED.);
#191=CARTESIAN_POINT('',(-4.440892E-015,0.0,0.0));
#192=DIRECTION('',(-0.697431199241300,-6.096883E-017,-0.716651744102281));
#193=DIRECTION('',(0.716651744102281,0.0,-0.697431199241300));
#194=AXIS2_PLACEMENT_3D('',#191,#192,#193);
#195=ELLIPSE('',#194,72.838725963597128,50.799999999999997);
#196=EDGE_CURVE('',#122,#120,#195,.T.);
#197=ORIENTED_EDGE('',*,*,#196,.T.);
#198=CARTESIAN_POINT('',(0.0,0.0,0.0));
#199=DIRECTION('',(0.716651744102281,0.0,0.697431199241300));
#200=DIRECTION('',(0.697431199241300,0.0,-0.716651744102281));
#201=AXIS2_PLACEMENT_3D('',#198,#199,#200);
#202=ELLIPSE('',#201,72.838725963597128,50.800000000000004);
#203=EDGE_CURVE('',#120,#122,#202,.T.);
#204=ORIENTED_EDGE('',*,*,#203,.T.);
#205=EDGE_LOOP('',(#197,#204));
#206=FACE_OUTER_BOUND('',#205,.T.);
#207=ADVANCED_FACE('',(#206),#190,.T.);
#208=CARTESIAN_POINT('',(54.0,0.0,0.0));
#209=DIRECTION('',(-1.0,0.0,0.0));
#210=DIRECTION('',(0.0,-1.0,0.0));
#211=AXIS2_PLACEMENT_3D('',#208,#209,#210);
#212=CYLINDRICAL_SURFACE('',#211,48.700000000000003);
#213=CARTESIAN_POINT('',(0.0,-48.700000000000003,0.0));
#214=VERTEX_POINT('',#213);
#215=CARTESIAN_POINT('',(0.0,48.700000000000003,5.964030E-015));
#216=VERTEX_POINT('',#215);
#217=CARTESIAN_POINT('',(0.0,0.0,0.0));
#218=DIRECTION('',(0.707106781186548,0.0,0.707106781186548));
#219=DIRECTION('',(-0.707106781186548,0.0,0.707106781186548));
#220=AXIS2_PLACEMENT_3D('',#217,#218,#219);
#221=ELLIPSE('',#220,68.872200487569728,48.700000000000017);
#222=EDGE_CURVE('',#214,#216,#221,.T.);
#223=ORIENTED_EDGE('',*,*,#222,.F.);
#224=CARTESIAN_POINT('',(0.0,0.0,0.0));
#225=DIRECTION('',(0.707106781186548,0.0,-0.707106781186548));
#226=DIRECTION('',(0.707106781186548,0.0,0.707106781186548));
#227=AXIS2_PLACEMENT_3D('',#224,#225,#226);
#228=ELLIPSE('',#227,68.872200487569728,48.700000000000017);
#229=EDGE_CURVE('',#216,#214,#228,.T.);
#230=ORIENTED_EDGE('',*,*,#229,.F.);
#231=EDGE_LOOP('',(#223,#230));
#232=FACE_OUTER_BOUND('',#231,.T.);
#233=CARTESIAN_POINT('',(54.0,48.700000000000003,5.964030E-015));
#234=VERTEX_POINT('',#233);
#235=CARTESIAN_POINT('',(54.0,0.0,0.0));
#236=DIRECTION('',(-1.0,0.0,0.0));
#237=DIRECTION('',(0.0,-1.0,0.0));
#238=AXIS2_PLACEMENT_3D('',#235,#236,#237);
#239=CIRCLE('',#238,48.700000000000003);
#240=EDGE_CURVE('',#234,#234,#239,.T.);
#241=ORIENTED_EDGE('',*,*,#240,.F.);
#242=EDGE_LOOP('',(#241));
#243=FACE_BOUND('',#242,.T.);
#244=ADVANCED_FACE('',(#232,#243),#212,.F.);
#245=CARTESIAN_POINT('',(54.0,0.0,0.0));
#246=DIRECTION('',(-1.0,0.0,0.0));
#247=DIRECTION('',(0.0,-1.0,0.0));
#248=AXIS2_PLACEMENT_3D('',#245,#246,#247);
#249=CYLINDRICAL_SURFACE('',#248,50.799999999999997);
#250=ORIENTED_EDGE('',*,*,#196,.F.);
#251=ORIENTED_EDGE('',*,*,#128,.F.);
#252=EDGE_LOOP('',(#250,#251));
#253=FACE_OUTER_BOUND('',#252,.T.);
#254=CARTESIAN_POINT('',(54.0,50.799999999999997,6.221206E-015));
#255=VERTEX_POINT('',#254);
#256=CARTESIAN_POINT('',(54.0,0.0,0.0));
#257=DIRECTION('',(-1.0,0.0,0.0));
#258=DIRECTION('',(0.0,-1.0,0.0));
#259=AXIS2_PLACEMENT_3D('',#256,#257,#258);
#260=CIRCLE('',#259,50.799999999999997);
#261=EDGE_CURVE('',#255,#255,#260,.T.);
#262=ORIENTED_EDGE('',*,*,#261,.T.);
#263=EDGE_LOOP('',(#262));
#264=FACE_BOUND('',#263,.T.);
#265=ADVANCED_FACE('',(#253,#264),#249,.T.);
#266=CARTESIAN_POINT('',(54.0,0.0,0.0));
#267=DIRECTION('',(-1.0,0.0,0.0));
#268=DIRECTION('',(0.0,0.0,1.0));
#269=AXIS2_PLACEMENT_3D('',#266,#267,#268);
#270=PLANE('',#269);
#271=ORIENTED_EDGE('',*,*,#261,.F.);
#272=EDGE_LOOP('',(#271));
#273=FACE_OUTER_BOUND('',#272,.T.);
#274=ORIENTED_EDGE('',*,*,#240,.T.);
#275=EDGE_LOOP('',(#274));
#276=FACE_BOUND('',#275,.T.);
#277=ADVANCED_FACE('',(#273,#276),#270,.F.);
#278=CARTESIAN_POINT('',(0.0,0.0,0.0));
#279=DIRECTION('',(0.0,0.0,1.0));
#280=DIRECTION('',(-1.0,0.0,0.0));
#281=AXIS2_PLACEMENT_3D('',#278,#279,#280);
#282=CYLINDRICAL_SURFACE('',#281,50.799999999999997);
#283=CARTESIAN_POINT('',(50.799999999999997,6.221206E-015,174.000000000000030));
#284=VERTEX_POINT('',#283);
#285=CARTESIAN_POINT('',(0.0,0.0,174.000000000000030));
#286=DIRECTION('',(0.0,0.0,-1.0));
#287=DIRECTION('',(-1.0,0.0,0.0));
#288=AXIS2_PLACEMENT_3D('',#285,#286,#287);
#289=CIRCLE('',#288,50.799999999999997);
#290=EDGE_CURVE('',#284,#284,#289,.T.);
#291=ORIENTED_EDGE('',*,*,#290,.T.);
#292=EDGE_LOOP('',(#291));
#293=FACE_OUTER_BOUND('',#292,.T.);
#294=ORIENTED_EDGE('',*,*,#135,.F.);
#295=ORIENTED_EDGE('',*,*,#203,.F.);
#296=EDGE_LOOP('',(#294,#295));
#297=FACE_BOUND('',#296,.T.);
#298=CARTESIAN_POINT('',(50.799999999999997,6.221206E-015,-174.000000000000030));
#299=VERTEX_POINT('',#298);
#300=CARTESIAN_POINT('',(0.0,0.0,-174.000000000000030));
#301=DIRECTION('',(0.0,0.0,1.0));
#302=DIRECTION('',(-1.0,0.0,0.0));
#303=AXIS2_PLACEMENT_3D('',#300,#301,#302);
#304=CIRCLE('',#303,50.799999999999997);
#305=EDGE_CURVE('',#299,#299,#304,.T.);
#306=ORIENTED_EDGE('',*,*,#305,.T.);
#307=EDGE_LOOP('',(#306));
#308=FACE_BOUND('',#307,.T.);
#309=ADVANCED_FACE('',(#293,#297,#308),#282,.T.);
#310=CARTESIAN_POINT('',(0.0,0.0,0.0));
#311=DIRECTION('',(0.0,0.0,1.0));
#312=DIRECTION('',(-1.0,0.0,0.0));
#313=AXIS2_PLACEMENT_3D('',#310,#311,#312);
#314=CYLINDRICAL_SURFACE('',#313,48.700000000000003);
#315=CARTESIAN_POINT('',(48.700000000000003,5.964030E-015,-174.000000000000030));
#316=VERTEX_POINT('',#315);
#317=CARTESIAN_POINT('',(0.0,0.0,-174.000000000000030));
#318=DIRECTION('',(0.0,0.0,1.0));
#319=DIRECTION('',(-1.0,0.0,0.0));
#320=AXIS2_PLACEMENT_3D('',#317,#318,#319);
#321=CIRCLE('',#320,48.700000000000003);
#322=EDGE_CURVE('',#316,#316,#321,.T.);
#323=ORIENTED_EDGE('',*,*,#322,.F.);
#324=EDGE_LOOP('',(#323));
#325=FACE_OUTER_BOUND('',#324,.T.);
#326=ORIENTED_EDGE('',*,*,#222,.T.);
#327=ORIENTED_EDGE('',*,*,#229,.T.);
#328=EDGE_LOOP('',(#326,#327));
#329=FACE_BOUND('',#328,.T.);
#330=CARTESIAN_POINT('',(48.700000000000003,5.964030E-015,174.000000000000030));
#331=VERTEX_POINT('',#330);
#332=CARTESIAN_POINT('',(0.0,0.0,174.000000000000030));
#333=DIRECTION('',(0.0,0.0,-1.0));
#334=DIRECTION('',(-1.0,0.0,0.0));
#335=AXIS2_PLACEMENT_3D('',#332,#333,#334);
#336=CIRCLE('',#335,48.700000000000003);
#337=EDGE_CURVE('',#331,#331,#336,.T.);
#338=ORIENTED_EDGE('',*,*,#337,.F.);
#339=EDGE_LOOP('',(#338));
#340=FACE_BOUND('',#339,.T.);
#341=ADVANCED_FACE('',(#325,#329,#340),#314,.F.);
#342=CARTESIAN_POINT('',(0.0,0.0,-174.000000000000030));
#343=DIRECTION('',(0.0,0.0,-1.0));
#344=DIRECTION('',(-1.0,0.0,0.0));
#345=AXIS2_PLACEMENT_3D('',#342,#343,#344);
#346=PLANE('',#345);
#347=ORIENTED_EDGE('',*,*,#305,.F.);
#348=EDGE_LOOP('',(#347));
#349=FACE_OUTER_BOUND('',#348,.T.);
#350=ORIENTED_EDGE('',*,*,#322,.T.);
#351=EDGE_LOOP('',(#350));
#352=FACE_BOUND('',#351,.T.);
#353=ADVANCED_FACE('',(#349,#352),#346,.T.);
#354=CARTESIAN_POINT('',(0.0,0.0,174.000000000000030));
#355=DIRECTION('',(0.0,0.0,-1.0));
#356=DIRECTION('',(-1.0,0.0,0.0));
#357=AXIS2_PLACEMENT_3D('',#354,#355,#356);
#358=PLANE('',#357);
#359=ORIENTED_EDGE('',*,*,#290,.F.);
#360=EDGE_LOOP('',(#359));
#361=FACE_OUTER_BOUND('',#360,.T.);
#362=ORIENTED_EDGE('',*,*,#337,.T.);
#363=EDGE_LOOP('',(#362));
#364=FACE_BOUND('',#363,.T.);
#365=ADVANCED_FACE('',(#361,#364),#358,.F.);
#366=CLOSED_SHELL('',(#139,#207,#244,#265,#277,#309,#341,#353,#365));
#367=MANIFOLD_SOLID_BREP('Solid1',#366);
#368=COLOUR_RGB('Metal-Steel',0.639216005802155,0.639216005802155,0.686275005340576);
#369=FILL_AREA_STYLE_COLOUR('Metal-Steel',#368);
#370=FILL_AREA_STYLE('Metal-Steel',(#369));
#371=SURFACE_STYLE_FILL_AREA(#370);
#372=SURFACE_SIDE_STYLE('Metal-Steel',(#371));
#373=SURFACE_STYLE_USAGE(.BOTH.,#372);
#374=PRESENTATION_STYLE_ASSIGNMENT((#373));
#375=STYLED_ITEM('',(#374),#367);
#376=MECHANICAL_DESIGN_GEOMETRIC_PRESENTATION_REPRESENTATION('',(#375),#36);
#377=ADVANCED_BREP_SHAPE_REPRESENTATION('ABSR',(#367),#36);
#378=SHAPE_REPRESENTATION_RELATIONSHIP('SRR','None',#377,#41);
ENDSEC;
END-ISO-10303-21;
